  0
SECTION
  2
HEADER
  9
$ACADVER
  1
AC1014
  9
$ACADMAINTVER
 70
     9
  9
$DWGCODEPAGE
  3
ANSI_932
  9
$INSBASE
 10
0.0
 20
0.0
 30
0.0
  9
$EXTMIN
 10
-250.1250002861023
 20
-99.5
 30
0.0
  9
$EXTMAX
 10
253.8750002861023
 20
98.5
 30
0.0
  9
$LIMMIN
 10
-148.5
 20
-105.0
  9
$LIMMAX
 10
148.5
 20
105.0
  9
$ORTHOMODE
 70
     0
  9
$REGENMODE
 70
     1
  9
$FILLMODE
 70
     1
  9
$QTEXTMODE
 70
     0
  9
$MIRRTEXT
 70
     1
  9
$DRAGMODE
 70
     2
  9
$LTSCALE
 40
1.0
  9
$OSMODE
 70
    37
  9
$ATTMODE
 70
     1
  9
$TEXTSIZE
 40
0.2
  9
$TRACEWID
 40
0.05
  9
$TEXTSTYLE
  7
STANDARD
  9
$CLAYER
  8
0
  9
$CELTYPE
  6
BYLAYER
  9
$CECOLOR
 62
   256
  9
$CELTSCALE
 40
1.0
  9
$DELOBJ
 70
     1
  9
$DISPSILH
 70
     0
  9
$DIMSCALE
 40
1.0
  9
$DIMASZ
 40
2.5
  9
$DIMEXO
 40
0.0625
  9
$DIMDLI
 40
0.38
  9
$DIMRND
 40
0.0
  9
$DIMDLE
 40
0.0
  9
$DIMEXE
 40
0.18
  9
$DIMTP
 40
0.0
  9
$DIMTM
 40
0.0
  9
$DIMTXT
 40
0.18
  9
$DIMCEN
 40
0.09
  9
$DIMTSZ
 40
0.0
  9
$DIMTOL
 70
     0
  9
$DIMLIM
 70
     0
  9
$DIMTIH
 70
     1
  9
$DIMTOH
 70
     1
  9
$DIMSE1
 70
     0
  9
$DIMSE2
 70
     0
  9
$DIMTAD
 70
     3
  9
$DIMZIN
 70
     0
  9
$DIMBLK
  1

  9
$DIMASO
 70
     1
  9
$DIMSHO
 70
     1
  9
$DIMPOST
  1

  9
$DIMAPOST
  1

  9
$DIMALT
 70
     0
  9
$DIMALTD
 70
     2
  9
$DIMALTF
 40
25.4
  9
$DIMLFAC
 40
1.0
  9
$DIMTOFL
 70
     0
  9
$DIMTVP
 40
0.0
  9
$DIMTIX
 70
     0
  9
$DIMSOXD
 70
     0
  9
$DIMSAH
 70
     0
  9
$DIMBLK1
  1

  9
$DIMBLK2
  1

  9
$DIMSTYLE
  2
STANDARD
  9
$DIMCLRD
 70
     0
  9
$DIMCLRE
 70
     0
  9
$DIMCLRT
 70
     0
  9
$DIMTFAC
 40
1.0
  9
$DIMGAP
 40
0.09
  9
$DIMJUST
 70
     0
  9
$DIMSD1
 70
     0
  9
$DIMSD2
 70
     0
  9
$DIMTOLJ
 70
     1
  9
$DIMTZIN
 70
     0
  9
$DIMALTZ
 70
     0
  9
$DIMALTTZ
 70
     0
  9
$DIMFIT
 70
     3
  9
$DIMUPT
 70
     0
  9
$DIMUNIT
 70
     2
  9
$DIMDEC
 70
     4
  9
$DIMTDEC
 70
     4
  9
$DIMALTU
 70
     2
  9
$DIMALTTD
 70
     2
  9
$DIMTXSTY
  7
STANDARD
  9
$DIMAUNIT
 70
     0
  9
$LUNITS
 70
     2
  9
$LUPREC
 70
     4
  9
$SKETCHINC
 40
0.1
  9
$FILLETRAD
 40
0.5
  9
$AUNITS
 70
     0
  9
$AUPREC
 70
     0
  9
$MENU
  1
.
  9
$ELEVATION
 40
0.0
  9
$PELEVATION
 40
0.0
  9
$THICKNESS
 40
0.0
  9
$LIMCHECK
 70
     0
  9
$CHAMFERA
 40
0.5
  9
$CHAMFERB
 40
0.5
  9
$CHAMFERC
 40
1.0
  9
$CHAMFERD
 40
0.0
  9
$SKPOLY
 70
     0
  9
$TDCREATE
 40
2456434.792115405
  9
$TDUPDATE
 40
2456434.792115417
  9
$TDINDWG
 40
0.0000000116
  9
$TDUSRTIMER
 40
0.0000000116
  9
$USRTIMER
 70
     1
  9
$ANGBASE
 50
0.0
  9
$ANGDIR
 70
     0
  9
$PDMODE
 70
     0
  9
$PDSIZE
 40
1.0
  9
$PLINEWID
 40
0.0
  9
$COORDS
 70
     1
  9
$SPLFRAME
 70
     0
  9
$SPLINETYPE
 70
     6
  9
$SPLINESEGS
 70
     8
  9
$ATTDIA
 70
     0
  9
$ATTREQ
 70
     1
  9
$HANDLING
 70
     1
  9
$HANDSEED
  5
169
  9
$SURFTAB1
 70
     6
  9
$SURFTAB2
 70
     6
  9
$SURFTYPE
 70
     6
  9
$SURFU
 70
     6
  9
$SURFV
 70
     6
  9
$UCSNAME
  2

  9
$UCSORG
 10
0.0
 20
0.0
 30
0.0
  9
$UCSXDIR
 10
1.0
 20
0.0
 30
0.0
  9
$UCSYDIR
 10
0.0
 20
1.0
 30
0.0
  9
$PUCSNAME
  2

  9
$PUCSORG
 10
0.0
 20
0.0
 30
0.0
  9
$PUCSXDIR
 10
1.0
 20
0.0
 30
0.0
  9
$PUCSYDIR
 10
0.0
 20
1.0
 30
0.0
  9
$USERI1
 70
     0
  9
$USERI2
 70
     0
  9
$USERI3
 70
     0
  9
$USERI4
 70
     0
  9
$USERI5
 70
     0
  9
$USERR1
 40
0.0
  9
$USERR2
 40
0.0
  9
$USERR3
 40
0.0
  9
$USERR4
 40
0.0
  9
$USERR5
 40
0.0
  9
$WORLDVIEW
 70
     1
  9
$SHADEDGE
 70
     3
  9
$SHADEDIF
 70
    70
  9
$TILEMODE
 70
     1
  9
$MAXACTVP
 70
    64
  9
$PINSBASE
 10
0.0
 20
0.0
 30
0.0
  9
$PLIMCHECK
 70
     0
  9
$PEXTMIN
 10
1.000000000000000E+20
 20
1.000000000000000E+20
 30
1.000000000000000E+20
  9
$PEXTMAX
 10
-1.000000000000000E+20
 20
-1.000000000000000E+20
 30
-1.000000000000000E+20
  9
$PLIMMIN
 10
0.0
 20
0.0
  9
$PLIMMAX
 10
12.0
 20
9.0
  9
$UNITMODE
 70
     0
  9
$VISRETAIN
 70
     0
  9
$PLINEGEN
 70
     1
  9
$PSLTSCALE
 70
     0
  9
$TREEDEPTH
 70
  3020
  9
$PICKSTYLE
 70
     1
  9
$CMLSTYLE
  2
STANDARD
  9
$CMLJUST
 70
     0
  9
$CMLSCALE
 40
1.0
  9
$PROXYGRAPHICS
 70
     0
  9
$MEASUREMENT
 70
     1
  0
ENDSEC
  0
SECTION
  2
CLASSES
  0
CLASS
  1
ACDBDICTIONARYWDFLT
  2
AcDbDictionaryWithDefault
  3
ObjectDBX Classes
 90
        0
280
     0
281
     0
  0
CLASS
  1
XRECORD
  2
AcDbXrecord
  3
AutoCAD 2000
 90
        0
280
     0
281
     0
  0
CLASS
  1
LWPOLYLINE
  2
AcDbPolyline
  3
AutoCAD 2000
 90
        0
280
     0
281
     1
  0
CLASS
  1
HATCH
  2
AcDbHatch
  3
AutoCAD 2000
 90
        0
280
     0
281
     1
  0
CLASS
  1
ACDBPLACEHOLDER
  2
AcDbPlaceHolder
  3
ObjectDBX Classes
 90
        0
280
     0
281
     0
  0
CLASS
  1
LAYOUT
  2
AcDbLayout
  3
ObjectDBX Classes
 90
        0
280
     0
281
     0
  0
ENDSEC
  0
SECTION
  2
TABLES
  0
TABLE
  2
VPORT
  5
8
330
0
100
AcDbSymbolTable
 70
     1
  0
VPORT
  5
29
330
8
100
AcDbSymbolTableRecord
100
AcDbViewportTableRecord
  2
*ACTIVE
 70
     0
 10
0.0
 20
0.0
 11
1.0
 21
1.0
 12
0.0
 22
0.0
 13
0.0
 23
0.0
 14
0.5
 24
0.5
 15
0.5
 25
0.5
 16
0.0
 26
0.0
 36
1.0
 17
1.875000000000011
 27
-0.5
 37
0.0
 40
67.32000000000001
 41
2.545454548344468
 42
50.0
 43
0.0
 44
0.0
 50
0.0
 51
0.0
 71
     0
 72
  1000
 73
     1
 74
     1
 75
     0
 76
     0
 77
     0
 78
     0
  0
ENDTAB
  0
TABLE
  2
LTYPE
  5
5
330
0
100
AcDbSymbolTable
 70
    28
  0
LTYPE
  5
14
330
5
100
AcDbSymbolTableRecord
100
AcDbLinetypeTableRecord
  2
BYBLOCK
 70
     0
  3

 72
    65
 73
     0
 40
0.0
  0
LTYPE
  5
15
330
5
100
AcDbSymbolTableRecord
100
AcDbLinetypeTableRecord
  2
BYLAYER
 70
     0
  3

 72
    65
 73
     0
 40
0.0
  0
LTYPE
  5
16
330
5
100
AcDbSymbolTableRecord
100
AcDbLinetypeTableRecord
  2
CONTINUOUS
 70
     0
  3
Solid line
 72
    65
 73
     0
 40
0.0
  0
LTYPE
  5
2B
330
5
100
AcDbSymbolTableRecord
100
AcDbLinetypeTableRecord
  2
HIDDENX2
 70
     0
  3
CADPAC LINETYPE
 72
    65
 73
     2
 40
4.57516339869278
 49
3.431372549019585
 74
     0
 49
-1.143790849673195
 74
     0
  0
LTYPE
  5
2C
330
5
100
AcDbSymbolTableRecord
100
AcDbLinetypeTableRecord
  2
HIDDEN
 70
     0
  3
CADPAC LINETYPE
 72
    65
 73
     2
 40
3.431372549019585
 49
2.28758169934639
 74
     0
 49
-1.143790849673195
 74
     0
  0
LTYPE
  5
2D
330
5
100
AcDbSymbolTableRecord
100
AcDbLinetypeTableRecord
  2
HIDDEN2
 70
     0
  3
CADPAC LINETYPE
 72
    65
 73
     2
 40
2.859477124182988
 49
1.715686274509793
 74
     0
 49
-1.143790849673195
 74
     0
  0
LTYPE
  5
2E
330
5
100
AcDbSymbolTableRecord
100
AcDbLinetypeTableRecord
  2
DASHED
 70
     0
  3
CADPAC LINETYPE
 72
    65
 73
     2
 40
3.202614379084935
 49
2.28758169934639
 74
     0
 49
-0.9150326797385446
 74
     0
  0
LTYPE
  5
2F
330
5
100
AcDbSymbolTableRecord
100
AcDbLinetypeTableRecord
  2
DASHED2
 70
     0
  3
CADPAC LINETYPE
 72
    65
 73
     2
 40
2.058823529411711
 49
1.372549019607817
 74
     0
 49
-0.6862745098038943
 74
     0
  0
LTYPE
  5
30
330
5
100
AcDbSymbolTableRecord
100
AcDbLinetypeTableRecord
  2
DASHEDX2
 70
     0
  3
CADPAC LINETYPE
 72
    65
 73
     2
 40
5.490196078431325
 49
4.57516339869278
 74
     0
 49
-0.9150326797385446
 74
     0
  0
LTYPE
  5
31
330
5
100
AcDbSymbolTableRecord
100
AcDbLinetypeTableRecord
  2
DOTX2
 70
     0
  3
CADPAC LINETYPE
 72
    65
 73
     2
 40
2.001633986928084
 49
0.0
 74
     0
 49
-2.001633986928084
 74
     0
  0
LTYPE
  5
32
330
5
100
AcDbSymbolTableRecord
100
AcDbLinetypeTableRecord
  2
DOT
 70
     0
  3
CADPAC LINETYPE
 72
    65
 73
     2
 40
1.601307189542467
 49
0.0
 74
     0
 49
-1.601307189542467
 74
     0
  0
LTYPE
  5
33
330
5
100
AcDbSymbolTableRecord
100
AcDbLinetypeTableRecord
  2
DOT2
 70
     0
  3
CADPAC LINETYPE
 72
    65
 73
     2
 40
1.200980392156851
 49
0.0
 74
     0
 49
-1.200980392156851
 74
     0
  0
LTYPE
  5
34
330
5
100
AcDbSymbolTableRecord
100
AcDbLinetypeTableRecord
  2
CENTERX2
 70
     0
  3
CADPAC LINETYPE
 72
    65
 73
     4
 40
6.86274509803917
 49
2.859477124182988
 74
     0
 49
-1.429738562091494
 74
     0
 49
1.143790849673195
 74
     0
 49
-1.429738562091494
 74
     0
  0
LTYPE
  5
35
330
5
100
AcDbSymbolTableRecord
100
AcDbLinetypeTableRecord
  2
CENTER
 70
     0
  3
CADPAC LINETYPE
 72
    65
 73
     4
 40
5.261437908496697
 49
2.28758169934639
 74
     0
 49
-1.143790849673195
 74
     0
 49
0.686274509803917
 74
     0
 49
-1.143790849673195
 74
     0
  0
LTYPE
  5
36
330
5
100
AcDbSymbolTableRecord
100
AcDbLinetypeTableRecord
  2
CENTER2
 70
     0
  3
CADPAC LINETYPE
 72
    65
 73
     4
 40
3.660130718954224
 49
1.715686274509793
 74
     0
 49
-0.8578431372548963
 74
     0
 49
0.228758169934639
 74
     0
 49
-0.8578431372548963
 74
     0
  0
LTYPE
  5
37
330
5
100
AcDbSymbolTableRecord
100
AcDbLinetypeTableRecord
  2
DASHDOTX2
 70
     0
  3
CADPAC LINETYPE
 72
    65
 73
     4
 40
10.98039215686262
 49
5.490196078431353
 74
     0
 49
-1.830065359477089
 74
     0
 49
1.830065359477089
 74
     0
 49
-1.830065359477089
 74
     0
  0
LTYPE
  5
38
330
5
100
AcDbSymbolTableRecord
100
AcDbLinetypeTableRecord
  2
DASHDOT
 70
     0
  3
CADPAC LINETYPE
 72
    65
 73
     4
 40
5.490196078431296
 49
2.745098039215662
 74
     0
 49
-0.9150326797385446
 74
     0
 49
0.9150326797385446
 74
     0
 49
-0.9150326797385446
 74
     0
  0
LTYPE
  5
39
330
5
100
AcDbSymbolTableRecord
100
AcDbLinetypeTableRecord
  2
DASHDOT2
 70
     0
  3
CADPAC LINETYPE
 72
    65
 73
     4
 40
3.522875816993418
 49
2.058823529411747
 74
     0
 49
-0.6862745098039085
 74
     0
 49
0.0915032679738545
 74
     0
 49
-0.6862745098039085
 74
     0
  0
LTYPE
  5
3A
330
5
100
AcDbSymbolTableRecord
100
AcDbLinetypeTableRecord
  2
DIVIDEX2
 70
     0
  3
CADPAC LINETYPE
 72
    65
 73
     6
 40
14.6405228758168
 49
5.490196078431353
 74
     0
 49
-1.830065359477089
 74
     0
 49
1.830065359477089
 74
     0
 49
-1.830065359477089
 74
     0
 49
1.830065359477089
 74
     0
 49
-1.830065359477089
 74
     0
  0
LTYPE
  5
3B
330
5
100
AcDbSymbolTableRecord
100
AcDbLinetypeTableRecord
  2
DIVIDE
 70
     0
  3
CADPAC LINETYPE
 72
    65
 73
     6
 40
7.320261437908386
 49
2.745098039215662
 74
     0
 49
-0.9150326797385446
 74
     0
 49
0.9150326797385446
 74
     0
 49
-0.9150326797385446
 74
     0
 49
0.9150326797385446
 74
     0
 49
-0.9150326797385446
 74
     0
  0
LTYPE
  5
3C
330
5
100
AcDbSymbolTableRecord
100
AcDbLinetypeTableRecord
  2
DIVIDE2
 70
     0
  3
CADPAC LINETYPE
 72
    65
 73
     6
 40
5.490196078431289
 49
2.058823529411747
 74
     0
 49
-0.6862745098039085
 74
     0
 49
0.6862745098039085
 74
     0
 49
-0.6862745098039085
 74
     0
 49
0.6862745098039085
 74
     0
 49
-0.6862745098039085
 74
     0
  0
LTYPE
  5
3D
330
5
100
AcDbSymbolTableRecord
100
AcDbLinetypeTableRecord
  2
BORDERX2
 70
     0
  3
CADPAC LINETYPE
 72
    65
 73
     6
 40
10.00816993464046
 49
2.859477124182988
 74
     0
 49
-1.429738562091494
 74
     0
 49
2.859477124182988
 74
     0
 49
-1.429738562091494
 74
     0
 49
0.0
 74
     0
 49
-1.429738562091494
 74
     0
  0
LTYPE
  5
3E
330
5
100
AcDbSymbolTableRecord
100
AcDbLinetypeTableRecord
  2
BORDER
 70
     0
  3
CADPAC LINETYPE
 72
    65
 73
     6
 40
8.006535947712365
 49
2.28758169934639
 74
     0
 49
-1.143790849673195
 74
     0
 49
2.28758169934639
 74
     0
 49
-1.143790849673195
 74
     0
 49
0.0
 74
     0
 49
-1.143790849673195
 74
     0
  0
LTYPE
  5
3F
330
5
100
AcDbSymbolTableRecord
100
AcDbLinetypeTableRecord
  2
BORDER2
 70
     0
  3
CADPAC LINETYPE
 72
    65
 73
     6
 40
5.947712418300569
 49
1.830065359477089
 74
     0
 49
-1.143790849673195
 74
     0
 49
0.6862745098038943
 74
     0
 49
-1.143790849673195
 74
     0
 49
0.0
 74
     0
 49
-1.143790849673195
 74
     0
  0
LTYPE
  5
40
330
5
100
AcDbSymbolTableRecord
100
AcDbLinetypeTableRecord
  2
PHANTOMX2
 70
     0
  3
CADPAC LINETYPE
 72
    65
 73
     6
 40
8.578431372548963
 49
2.859477124182988
 74
     0
 49
-1.143790849673195
 74
     0
 49
1.143790849673195
 74
     0
 49
-1.143790849673195
 74
     0
 49
1.143790849673195
 74
     0
 49
-1.143790849673195
 74
     0
  0
LTYPE
  5
41
330
5
100
AcDbSymbolTableRecord
100
AcDbLinetypeTableRecord
  2
PHANTOM
 70
     0
  3
CADPAC LINETYPE
 72
    65
 73
     6
 40
7.09150326797381
 49
2.28758169934639
 74
     0
 49
-1.143790849673195
 74
     0
 49
0.686274509803917
 74
     0
 49
-1.143790849673195
 74
     0
 49
0.686274509803917
 74
     0
 49
-1.143790849673195
 74
     0
  0
LTYPE
  5
42
330
5
100
AcDbSymbolTableRecord
100
AcDbLinetypeTableRecord
  2
PHANTOM2
 70
     0
  3
CADPAC LINETYPE
 72
    65
 73
     6
 40
6.062091503267933
 49
1.715686274509793
 74
     0
 49
-1.143790849673195
 74
     0
 49
0.457516339869278
 74
     0
 49
-1.143790849673195
 74
     0
 49
0.457516339869278
 74
     0
 49
-1.143790849673195
 74
     0
  0
LTYPE
  5
43
330
5
100
AcDbSymbolTableRecord
100
AcDbLinetypeTableRecord
  2
ACAD_ISO06W100
 70
     0
  3
CADPAC LINETYPE
 72
    65
 73
     8
 40
12.12418300653582
 49
5.490196078431353
 74
     0
 49
-1.143790849673195
 74
     0
 49
0.6862745098038943
 74
     0
 49
-1.143790849673195
 74
     0
 49
0.6862745098038943
 74
     0
 49
-1.143790849673195
 74
     0
 49
0.6862745098038943
 74
     0
 49
-1.143790849673195
 74
     0
  0
LTYPE
  5
44
330
5
100
AcDbSymbolTableRecord
100
AcDbLinetypeTableRecord
  2
ACAD_ISO13W100
 70
     0
  3
CADPAC LINETYPE
 72
    65
 73
     8
 40
9.15032679738556
 49
2.28758169934639
 74
     0
 49
-1.143790849673195
 74
     0
 49
2.28758169934639
 74
     0
 49
-1.143790849673195
 74
     0
 49
0.0
 74
     0
 49
-1.143790849673195
 74
     0
 49
0.0
 74
     0
 49
-1.143790849673195
 74
     0
  0
LTYPE
  5
45
330
5
100
AcDbSymbolTableRecord
100
AcDbLinetypeTableRecord
  2
ACAD_ISO14W100
 70
     0
  3
CADPAC LINETYPE
 72
    65
 73
     8
 40
6.86274509803917
 49
2.28758169934639
 74
     0
 49
-1.143790849673195
 74
     0
 49
0.0
 74
     0
 49
-1.143790849673195
 74
     0
 49
0.0
 74
     0
 49
-1.143790849673195
 74
     0
 49
0.0
 74
     0
 49
-1.143790849673195
 74
     0
  0
ENDTAB
  0
TABLE
  2
LAYER
  5
2
330
0
100
AcDbSymbolTable
 70
     3
  0
LAYER
  5
10
330
2
100
AcDbSymbolTableRecord
100
AcDbLayerTableRecord
  2
0
 70
     0
 62
     7
  6
CONTINUOUS
  0
LAYER
  5
46
330
2
100
AcDbSymbolTableRecord
100
AcDbLayerTableRecord
  2
LAYER0001
 70
     0
 62
     7
  6
CONTINUOUS
  0
LAYER
  5
47
330
2
100
AcDbSymbolTableRecord
100
AcDbLayerTableRecord
  2
LAYER0064
 70
     0
 62
     7
  6
CONTINUOUS
  0
ENDTAB
  0
TABLE
  2
STYLE
  5
3
330
0
100
AcDbSymbolTable
 70
     2
  0
STYLE
  5
11
330
3
100
AcDbSymbolTableRecord
100
AcDbTextStyleTableRecord
  2
STANDARD
 70
     0
 40
0.0
 41
1.0
 50
0.0
 71
     0
 42
0.2
  3
txt
  4

  0
STYLE
  5
5A
330
3
100
AcDbSymbolTableRecord
100
AcDbTextStyleTableRecord
  2
FDASTYLE0
 70
     0
 40
4.0
 41
0.7500000000000001
 50
0.0
 71
     0
 42
0.2
  3
txt.shx
  4
bigfont
  0
ENDTAB
  0
TABLE
  2
VIEW
  5
6
330
0
100
AcDbSymbolTable
 70
     0
  0
ENDTAB
  0
TABLE
  2
UCS
  5
7
330
0
100
AcDbSymbolTable
 70
     0
  0
ENDTAB
  0
TABLE
  2
APPID
  5
9
330
0
100
AcDbSymbolTable
 70
     2
  0
APPID
  5
12
330
9
100
AcDbSymbolTableRecord
100
AcDbRegAppTableRecord
  2
ACAD
 70
     0
  0
APPID
  5
2A
330
9
100
AcDbSymbolTableRecord
100
AcDbRegAppTableRecord
  2
DAFUSIONOUT
 70
     0
  0
ENDTAB
  0
TABLE
  2
DIMSTYLE
  5
A
330
0
100
AcDbSymbolTable
 70
     1
  0
DIMSTYLE
105
27
330
A
100
AcDbSymbolTableRecord
100
AcDbDimStyleTableRecord
  2
STANDARD
 70
     0
  3

  4

  5

  6

  7

 40
1.0
 41
0.18
 42
0.0625
 43
0.38
 44
0.18
 45
0.0
 46
0.0
 47
0.0
 48
0.0
140
0.18
141
0.09
142
0.0
143
25.4
144
1.0
145
0.0
146
1.0
147
0.09
 71
     0
 72
     0
 73
     1
 74
     1
 75
     0
 76
     0
 77
     0
 78
     0
170
     0
171
     2
172
     0
173
     0
174
     0
175
     0
176
     0
177
     0
178
     0
270
     2
271
     4
272
     4
273
     2
274
     2
340
11
275
     0
280
     0
281
     0
282
     0
283
     1
284
     0
285
     0
286
     0
287
     3
288
     0
  0
ENDTAB
  0
TABLE
  2
BLOCK_RECORD
  5
1
330
0
100
AcDbSymbolTable
 70
     5
  0
BLOCK_RECORD
  5
1F
330
1
100
AcDbSymbolTableRecord
100
AcDbBlockTableRecord
  2
*MODEL_SPACE
  0
BLOCK_RECORD
  5
1B
330
1
100
AcDbSymbolTableRecord
100
AcDbBlockTableRecord
  2
*PAPER_SPACE
  0
BLOCK_RECORD
  5
49
330
1
100
AcDbSymbolTableRecord
100
AcDbBlockTableRecord
  2
DA_IMAGEDIMGROUP_1
  0
BLOCK_RECORD
  5
4C
330
1
100
AcDbSymbolTableRecord
100
AcDbBlockTableRecord
  2
DA_IMAGEDIMGROUP_2
  0
BLOCK_RECORD
  5
51
330
1
100
AcDbSymbolTableRecord
100
AcDbBlockTableRecord
  2
_OPEN30
  0
BLOCK_RECORD
  5
76
330
1
100
AcDbSymbolTableRecord
100
AcDbBlockTableRecord
  2
_DOT
  0
ENDTAB
  0
ENDSEC
  0
SECTION
  2
BLOCKS
  0
BLOCK
  5
20
330
1F
100
AcDbEntity
  8
0
100
AcDbBlockBegin
  2
*MODEL_SPACE
 70
     0
 71
     0
 10
0.0
 20
0.0
 30
0.0
  3
*MODEL_SPACE
  1

  0
ENDBLK
  5
21
330
1F
100
AcDbEntity
  8
0
100
AcDbBlockEnd
  0
BLOCK
  5
1C
330
1B
100
AcDbEntity
 67
     1
  8
0
100
AcDbBlockBegin
  2
*PAPER_SPACE
 70
     0
 71
     0
 10
0.0
 20
0.0
 30
0.0
  3
*PAPER_SPACE
  1

  0
ENDBLK
  5
1D
330
1B
100
AcDbEntity
 67
     1
  8
0
100
AcDbBlockEnd
  0
BLOCK
  5
4A
330
49
100
AcDbEntity
  8
0
100
AcDbBlockBegin
  2
DA_IMAGEDIMGROUP_1
 70
     0
 71
     0
 10
0.0
 20
0.0
 30
0.0
  3
DA_IMAGEDIMGROUP_1
  1

  0
LINE
  5
4F
330
49
100
AcDbEntity
  8
0
  6
CONTINUOUS
 62
     9
100
AcDbLine
 10
31.33576935886089
 20
-9.499999999999995
 30
0.0
 11
31.33576935886089
 21
3.499999999999996
 31
0.0
  0
LINE
  5
50
330
49
100
AcDbEntity
  8
0
  6
CONTINUOUS
 62
     9
100
AcDbLine
 10
31.33576935886089
 20
-31.86178
 30
0.0
 11
31.33576935886089
 21
-9.499999999999995
 31
0.0
  0
INSERT
  5
57
330
49
100
AcDbEntity
  8
0
 62
     9
100
AcDbBlockReference
  2
_OPEN30
 10
31.33576935886089
 20
-9.499999999999995
 30
0.0
 41
3.000002787824364
 42
2.999989273978464
 50
90.0
  0
LINE
  5
58
330
49
100
AcDbEntity
  8
0
  6
CONTINUOUS
 62
     9
100
AcDbLine
 10
31.33576935886089
 20
8.499999999999996
 30
0.0
 11
31.33576935886089
 21
3.499999999999996
 31
0.0
  0
INSERT
  5
59
330
49
100
AcDbEntity
  8
0
 62
     9
100
AcDbBlockReference
  2
_OPEN30
 10
31.33576935886089
 20
3.499999999999996
 30
0.0
 41
3.000002787824364
 42
2.999989273978464
 50
270.0
  0
TEXT
  5
5B
330
49
100
AcDbEntity
  8
0
 62
     7
100
AcDbText
 10
30.33576935886089
 20
-30.86178
 30
0.0
 40
4.0
  1
φ13
 50
90.0
 41
0.7500000000000001
  7
FDASTYLE0
 72
     5
 11
30.33576935886089
 21
-21.26178
 31
0.0
100
AcDbText
  0
TEXT
  5
5C
330
49
100
AcDbEntity
  8
0
 62
     7
100
AcDbText
 10
27.73576935886089
 20
-20.26178
 30
0.0
 40
2.6
  1
±0.2
 50
90.0
 41
0.7619047619047619
  7
FDASTYLE0
 72
     5
 11
27.73576935886089
 21
-11.94178
 31
0.0
100
AcDbText
  0
ENDBLK
  5
4B
330
49
100
AcDbEntity
  8
0
100
AcDbBlockEnd
  0
BLOCK
  5
4D
330
4C
100
AcDbEntity
  8
0
100
AcDbBlockBegin
  2
DA_IMAGEDIMGROUP_2
 70
     0
 71
     0
 10
0.0
 20
0.0
 30
0.0
  3
DA_IMAGEDIMGROUP_2
  1

  0
LINE
  5
5D
330
4C
100
AcDbEntity
  8
0
  6
CONTINUOUS
 62
     9
100
AcDbLine
 10
42.87500009536745
 20
-6.999999886751146
 30
0.0
 11
52.87500009536745
 21
-6.999999886751146
 31
0.0
  0
LINE
  5
5E
330
4C
100
AcDbEntity
  8
0
  6
CONTINUOUS
 62
     9
100
AcDbLine
 10
42.87500009536745
 20
0.9999998867511568
 30
0.0
 11
52.87500009536745
 21
0.9999998867511568
 31
0.0
  0
LINE
  5
5F
330
4C
100
AcDbEntity
  8
0
  6
CONTINUOUS
 62
     9
100
AcDbLine
 10
51.87500009536745
 20
-6.999999886751146
 30
0.0
 11
51.87500009536745
 21
0.9999998867511568
 31
0.0
  0
INSERT
  5
60
330
4C
100
AcDbEntity
  8
0
 62
     9
100
AcDbBlockReference
  2
_OPEN30
 10
51.87500009536745
 20
-6.999999886751146
 30
0.0
 41
3.000002787824364
 42
2.999989273978464
 50
270.0
  0
INSERT
  5
61
330
4C
100
AcDbEntity
  8
0
 62
     9
100
AcDbBlockReference
  2
_OPEN30
 10
51.87500009536745
 20
0.9999998867511568
 30
0.0
 41
3.000002787824364
 42
2.999989273978464
 50
90.0
  0
TEXT
  5
62
330
4C
100
AcDbEntity
  8
0
 62
     7
100
AcDbText
 10
50.87500009536745
 20
-4.599999999999996
 30
0.0
 40
4.0
  1
8
 50
90.0
 41
0.8000000000000007
  7
FDASTYLE0
 72
     5
 11
50.87500009536745
 21
-1.399999999999993
 31
0.0
100
AcDbText
  0
ENDBLK
  5
4E
330
4C
100
AcDbEntity
  8
0
100
AcDbBlockEnd
  0
BLOCK
  5
52
330
51
100
AcDbEntity
  8
0
100
AcDbBlockBegin
  2
_OPEN30
 70
     0
 71
     0
 10
0.0
 20
0.0
 30
0.0
  3
_OPEN30
  1

  0
LINE
  5
54
330
51
100
AcDbEntity
  8
0
  6
BYBLOCK
 62
     0
100
AcDbLine
 10
-1.0
 20
0.267949
 30
0.0
 11
0.0
 21
0.0
 31
0.0
  0
LINE
  5
55
330
51
100
AcDbEntity
  8
0
  6
BYBLOCK
 62
     0
100
AcDbLine
 10
0.0
 20
0.0
 30
0.0
 11
-1.0
 21
-0.267949
 31
0.0
  0
LINE
  5
56
330
51
100
AcDbEntity
  8
0
  6
BYBLOCK
 62
     0
100
AcDbLine
 10
0.0
 20
0.0
 30
0.0
 11
-1.0
 21
0.0
 31
0.0
  0
ENDBLK
  5
53
330
51
100
AcDbEntity
  8
0
100
AcDbBlockEnd
  0
BLOCK
  5
77
330
76
100
AcDbEntity
  8
0
100
AcDbBlockBegin
  2
_DOT
 70
     0
 71
     0
 10
0.0
 20
0.0
 30
0.0
  3
_DOT
  1

  0
LWPOLYLINE
  5
79
330
76
100
AcDbEntity
  8
0
  6
BYBLOCK
 62
     0
100
AcDbPolyline
 90
        2
 70
     1
 43
0.5
 10
-0.25
 20
0.0
 42
1.0
 10
0.25
 20
0.0
 42
1.0
  0
LINE
  5
7A
330
76
100
AcDbEntity
  8
0
  6
BYBLOCK
 62
     0
100
AcDbLine
 10
-0.5
 20
0.0
 30
0.0
 11
-1.0
 21
0.0
 31
0.0
  0
ENDBLK
  5
78
330
76
100
AcDbEntity
  8
0
100
AcDbBlockEnd
  0
ENDSEC
  0
SECTION
  2
ENTITIES
  0
LINE
  5
63
330
1F
100
AcDbEntity
  8
0
  6
DIVIDE
 62
     9
100
AcDbLine
 10
20.83576935886089
 20
3.499999999999982
 30
0.0
 11
20.83576935886089
 21
-9.499999999999995
 31
0.0
  0
LINE
  5
64
330
1F
100
AcDbEntity
  8
0
  6
DIVIDE
 62
     9
100
AcDbLine
 10
34.83576935886089
 20
3.499999999999996
 30
0.0
 11
34.83576935886089
 21
-9.499999999999995
 31
0.0
  0
LINE
  5
65
330
1F
100
AcDbEntity
  8
0
  6
CENTER
 62
     9
100
AcDbLine
 10
39.67499990463258
 20
-3.000000000000012
 30
0.0
 11
-16.87500009536742
 21
-3.000000000000012
 31
0.0
  0
LINE
  5
66
330
1F
100
AcDbEntity
  8
0
  6
CENTER
 62
     9
100
AcDbLine
 10
-67.62500009536743
 20
-1.499999999999998
 30
0.0
 11
-67.62500009536743
 21
-4.499999999999998
 31
0.0
  0
LINE
  5
67
330
1F
100
AcDbEntity
  8
0
  6
CENTER
 62
     9
100
AcDbLine
 10
-77.12500009536743
 20
-4.499999999999998
 30
0.0
 11
-77.12500009536743
 21
-1.499999999999998
 31
0.0
  0
CIRCLE
  5
68
330
1F
100
AcDbEntity
  8
0
  6
CONTINUOUS
 62
     9
100
AcDbCircle
 10
-67.62500009536743
 20
-2.999999999999998
 30
0.0
 40
1.0
  0
CIRCLE
  5
69
330
1F
100
AcDbEntity
  8
0
  6
CONTINUOUS
 62
     9
100
AcDbCircle
 10
-77.12500009536743
 20
-2.999999999999998
 30
0.0
 40
1.0
  0
CIRCLE
  5
6A
330
1F
100
AcDbEntity
  8
0
  6
CONTINUOUS
 62
     9
100
AcDbCircle
 10
75.87500009536745
 20
-6.000000000000012
 30
0.0
 40
1.0
  0
LINE
  5
6B
330
1F
100
AcDbEntity
  8
0
  6
CONTINUOUS
 62
     9
100
AcDbLine
 10
76.07500009536744
 20
-6.200000000000015
 30
0.0
 11
76.07500009536744
 21
-6.979795897113286
 31
0.0
  0
LINE
  5
6C
330
1F
100
AcDbEntity
  8
0
  6
CONTINUOUS
 62
     9
100
AcDbLine
 10
75.67500009536747
 20
-6.200000000000015
 30
0.0
 11
75.67500009536747
 21
-6.979795897113286
 31
0.0
  0
LINE
  5
6D
330
1F
100
AcDbEntity
  8
0
  6
CONTINUOUS
 62
     9
100
AcDbLine
 10
76.85479599248072
 20
-6.200000000000015
 30
0.0
 11
76.07500009536744
 21
-6.200000000000015
 31
0.0
  0
LINE
  5
6E
330
1F
100
AcDbEntity
  8
0
  6
CONTINUOUS
 62
     9
100
AcDbLine
 10
76.85479599248072
 20
-5.800000000000017
 30
0.0
 11
76.07500009536744
 21
-5.800000000000013
 31
0.0
  0
LINE
  5
6F
330
1F
100
AcDbEntity
  8
0
  6
CONTINUOUS
 62
     9
100
AcDbLine
 10
76.07500009536744
 20
-5.020204102886742
 30
0.0
 11
76.07500009536744
 21
-5.800000000000013
 31
0.0
  0
LINE
  5
70
330
1F
100
AcDbEntity
  8
0
  6
CONTINUOUS
 62
     9
100
AcDbLine
 10
75.67500009536747
 20
-5.020204102886742
 30
0.0
 11
75.67500009536747
 21
-5.800000000000013
 31
0.0
  0
LINE
  5
71
330
1F
100
AcDbEntity
  8
0
  6
CONTINUOUS
 62
     9
100
AcDbLine
 10
75.67500009536747
 20
-6.200000000000015
 30
0.0
 11
74.89520419825416
 21
-6.200000000000015
 31
0.0
  0
LINE
  5
72
330
1F
100
AcDbEntity
  8
0
  6
CONTINUOUS
 62
     9
100
AcDbLine
 10
75.67500009536747
 20
-5.800000000000013
 30
0.0
 11
74.89520419825416
 21
-5.800000000000013
 31
0.0
  0
LINE
  5
73
330
1F
100
AcDbEntity
  8
0
  6
CONTINUOUS
 62
     9
100
AcDbLine
 10
-77.18587181038384
 20
-3.782636335925541
 30
0.0
 11
-78.87500009536743
 21
-25.5
 31
0.0
  0
INSERT
  5
74
330
1F
100
AcDbEntity
  8
0
 62
     9
100
AcDbBlockReference
  2
_OPEN30
 10
-77.18587181038384
 20
-3.782636335925541
 30
0.0
 41
3.000002787824364
 42
2.999989273978464
 50
85.55261514990947
  0
LINE
  5
75
330
1F
100
AcDbEntity
  8
0
  6
CONTINUOUS
 62
     9
100
AcDbLine
 10
18.17499990463255
 20
-33.5
 30
0.0
 11
24.33576935886089
 21
-6.250000000000004
 31
0.0
  0
INSERT
  5
7B
330
1F
100
AcDbEntity
  8
0
 62
     9
100
AcDbBlockReference
  2
_DOT
 10
24.33576935886089
 20
-6.250000000000004
 30
0.0
 41
2.5
 42
2.5
 50
77.26055346458824
  0
LINE
  5
7C
330
1F
100
AcDbEntity
  8
0
  6
CONTINUOUS
 62
     9
100
AcDbLine
 10
71.87500009536745
 20
-17.5
 30
0.0
 11
75.54647947042616
 21
-6.944496796706172
 31
0.0
  0
INSERT
  5
7D
330
1F
100
AcDbEntity
  8
0
 62
     9
100
AcDbBlockReference
  2
_OPEN30
 10
75.54647947042616
 20
-6.944496796706172
 30
0.0
 41
3.000002787824364
 42
2.999989273978464
 50
70.82099197418934
  0
LINE
  5
7E
330
1F
100
AcDbEntity
  8
0
  6
CONTINUOUS
 62
     3
100
AcDbLine
 10
18.17499990463255
 20
-8.649999999999993
 30
0.0
 11
18.17499990463255
 21
2.649999999999995
 31
0.0
  0
CIRCLE
  5
7F
330
1F
100
AcDbEntity
  8
0
  6
CONTINUOUS
 62
     3
100
AcDbCircle
 10
-72.37500009536743
 20
-2.999999999999998
 30
0.0
 40
1.5
  0
CIRCLE
  5
80
330
1F
100
AcDbEntity
  8
0
  6
CONTINUOUS
 62
     3
100
AcDbCircle
 10
-72.37500009536743
 20
-2.999999999999998
 30
0.0
 40
6.5
  0
LINE
  5
81
330
1F
100
AcDbEntity
  8
0
  6
CONTINUOUS
 62
     3
100
AcDbLine
 10
-73.49303408411731
 20
-1.999999999999998
 30
0.0
 11
-71.25696610661751
 21
-1.999999999999998
 31
0.0
  0
CIRCLE
  5
82
330
1F
100
AcDbEntity
  8
0
  6
CONTINUOUS
 62
     3
100
AcDbCircle
 10
-72.37500009536743
 20
-2.999999999999998
 30
0.0
 40
3.0
  0
LINE
  5
83
330
1F
100
AcDbEntity
  8
0
  6
CONTINUOUS
 62
     3
100
AcDbLine
 10
-4.675000095367416
 20
3.500000000000004
 30
0.0
 11
17.87499990463255
 21
3.500000000000004
 31
0.0
  0
LINE
  5
84
330
1F
100
AcDbEntity
  8
0
  6
CONTINUOUS
 62
     3
100
AcDbLine
 10
-15.87500009536742
 20
-1.999999999999998
 30
0.0
 11
-15.87500009536742
 21
-4.499999999999998
 31
0.0
  0
LINE
  5
85
330
1F
100
AcDbEntity
  8
0
  6
CONTINUOUS
 62
     3
100
AcDbLine
 10
-4.675000095367416
 20
-9.499999999999998
 30
0.0
 11
17.87499990463255
 21
-9.499999999999998
 31
0.0
  0
LINE
  5
86
330
1F
100
AcDbEntity
  8
0
  6
CONTINUOUS
 62
     3
100
AcDbLine
 10
-15.87500009536742
 20
-1.999999999999998
 30
0.0
 11
-9.375000095367419
 21
-1.999999999999998
 31
0.0
  0
LINE
  5
87
330
1F
100
AcDbEntity
  8
0
  6
CONTINUOUS
 62
     3
100
AcDbLine
 10
-4.875000095367419
 20
-9.299999999999999
 30
0.0
 11
-4.875000095367419
 21
3.300000000000001
 31
0.0
  0
LINE
  5
88
330
1F
100
AcDbEntity
  8
0
  6
CONTINUOUS
 62
     3
100
AcDbLine
 10
-5.875000095367419
 20
-0.2000000000000011
 30
0.0
 11
-5.875000095367419
 21
-5.799999999999999
 31
0.0
  0
LINE
  5
89
330
1F
100
AcDbEntity
  8
0
  6
CONTINUOUS
 62
     3
100
AcDbLine
 10
-7.375000095367419
 20
-1.499999999999998
 30
0.0
 11
-8.508974691582985
 21
-1.499999999999998
 31
0.0
  0
LINE
  5
8A
330
1F
100
AcDbEntity
  8
0
  6
CONTINUOUS
 62
     3
100
AcDbLine
 10
-7.375000095367419
 20
-4.499999999999998
 30
0.0
 11
-15.87500009536742
 21
-4.499999999999998
 31
0.0
  0
LINE
  5
8B
330
1F
100
AcDbEntity
  8
0
  6
CONTINUOUS
 62
     3
100
AcDbLine
 10
17.97499990463255
 20
3.400000000000002
 30
0.0
 11
17.97499990463255
 21
-9.399999999999997
 31
0.0
  0
LINE
  5
8C
330
1F
100
AcDbEntity
  8
0
  6
CONTINUOUS
 62
     3
100
AcDbLine
 10
-5.675000095367416
 20
0.0000000000000018
 30
0.0
 11
-4.875000095367419
 21
0.0000000000000018
 31
0.0
  0
LINE
  5
8D
330
1F
100
AcDbEntity
  8
0
  6
CONTINUOUS
 62
     3
100
AcDbLine
 10
-5.875000095367419
 20
-0.2000000000000011
 30
0.0
 11
-5.675000095367416
 21
0.0000000000000018
 31
0.0
  0
LINE
  5
8E
330
1F
100
AcDbEntity
  8
0
  6
CONTINUOUS
 62
     3
100
AcDbLine
 10
-5.675000095367416
 20
-5.999999999999998
 30
0.0
 11
-4.875000095367419
 21
-5.999999999999998
 31
0.0
  0
LINE
  5
8F
330
1F
100
AcDbEntity
  8
0
  6
CONTINUOUS
 62
     3
100
AcDbLine
 10
-5.875000095367419
 20
-5.799999999999999
 30
0.0
 11
-5.675000095367416
 21
-5.999999999999998
 31
0.0
  0
LINE
  5
90
330
1F
100
AcDbEntity
  8
0
  6
CONTINUOUS
 62
     3
100
AcDbLine
 10
-7.375000095367419
 20
-0.2499999999999982
 30
0.0
 11
-7.375000095367419
 21
-5.749999999999998
 31
0.0
  0
LINE
  5
91
330
1F
100
AcDbEntity
  8
0
  6
CONTINUOUS
 62
     3
100
AcDbLine
 10
-5.875000095367419
 20
-0.2499999999999982
 30
0.0
 11
-7.375000095367419
 21
-0.2499999999999982
 31
0.0
  0
LINE
  5
92
330
1F
100
AcDbEntity
  8
0
  6
CONTINUOUS
 62
     3
100
AcDbLine
 10
-5.875000095367419
 20
-5.749999999999998
 30
0.0
 11
-7.375000095367419
 21
-5.749999999999998
 31
0.0
  0
LINE
  5
93
330
1F
100
AcDbEntity
  8
0
  6
CONTINUOUS
 62
     3
100
AcDbLine
 10
17.87499990463255
 20
3.500000000000004
 30
0.0
 11
17.97499990463255
 21
3.400000000000002
 31
0.0
  0
LINE
  5
94
330
1F
100
AcDbEntity
  8
0
  6
CONTINUOUS
 62
     3
100
AcDbLine
 10
17.87499990463255
 20
-9.499999999999998
 30
0.0
 11
17.97499990463255
 21
-9.399999999999997
 31
0.0
  0
LINE
  5
95
330
1F
100
AcDbEntity
  8
0
  6
CONTINUOUS
 62
     3
100
AcDbLine
 10
-4.675000095367416
 20
3.500000000000004
 30
0.0
 11
-4.875000095367419
 21
3.300000000000001
 31
0.0
  0
LINE
  5
96
330
1F
100
AcDbEntity
  8
0
  6
CONTINUOUS
 62
     3
100
AcDbLine
 10
-4.675000095367416
 20
-9.499999999999998
 30
0.0
 11
-4.875000095367419
 21
-9.299999999999999
 31
0.0
  0
LINE
  5
97
330
1F
100
AcDbEntity
  8
0
  6
CONTINUOUS
 62
     3
100
AcDbLine
 10
17.97499990463255
 20
2.649999999999995
 30
0.0
 11
18.17499990463255
 21
2.649999999999995
 31
0.0
  0
LINE
  5
98
330
1F
100
AcDbEntity
  8
0
  6
CONTINUOUS
 62
     3
100
AcDbLine
 10
17.97499990463255
 20
-8.649999999999993
 30
0.0
 11
18.17499990463255
 21
-8.649999999999993
 31
0.0
  0
LINE
  5
99
330
1F
100
AcDbEntity
  8
0
  6
CONTINUOUS
 62
     3
100
AcDbLine
 10
-9.375000095367419
 20
-1.999999999999998
 30
0.0
 11
-8.508974691582985
 21
-1.499999999999998
 31
0.0
  0
CIRCLE
  5
9A
330
1F
100
AcDbEntity
  8
0
  6
CONTINUOUS
 62
     3
100
AcDbCircle
 10
-67.62500009536743
 20
-2.999999999999998
 30
0.0
 40
0.7850000000000001
  0
CIRCLE
  5
9B
330
1F
100
AcDbEntity
  8
0
  6
CONTINUOUS
 62
     3
100
AcDbCircle
 10
-77.12500009536743
 20
-2.999999999999998
 30
0.0
 40
0.7850000000000001
  0
LINE
  5
9C
330
1F
100
AcDbEntity
  8
0
  6
CONTINUOUS
 62
     3
100
AcDbLine
 10
36.77499990463256
 20
-9.499999999999995
 30
0.0
 11
18.37499990463255
 21
-9.499999999999995
 31
0.0
  0
LINE
  5
9D
330
1F
100
AcDbEntity
  8
0
  6
CONTINUOUS
 62
     3
100
AcDbLine
 10
36.77499990463256
 20
-9.499999999999995
 30
0.0
 11
36.87499990463257
 21
-9.399999999999993
 31
0.0
  0
LINE
  5
9E
330
1F
100
AcDbEntity
  8
0
  6
CONTINUOUS
 62
     3
100
AcDbLine
 10
18.17499990463255
 20
-9.299999999999995
 30
0.0
 11
18.37499990463255
 21
-9.499999999999995
 31
0.0
  0
LINE
  5
9F
330
1F
100
AcDbEntity
  8
0
  6
CONTINUOUS
 62
     3
100
AcDbLine
 10
36.87499990463257
 20
-8.913602998859437
 30
0.0
 11
37.87499990463258
 21
-8.549632764593225
 31
0.0
  0
LINE
  5
A0
330
1F
100
AcDbEntity
  8
0
  6
CONTINUOUS
 62
     3
100
AcDbLine
 10
41.87500009536745
 20
-7.299999886751143
 30
0.0
 11
41.87500009536745
 21
-6.999999886751146
 31
0.0
  0
LINE
  5
A1
330
1F
100
AcDbEntity
  8
0
  6
CONTINUOUS
 62
     3
100
AcDbLine
 10
37.87499990463258
 20
-8.413247398615239
 30
0.0
 11
38.37499990463258
 21
-8.413247398615239
 31
0.0
  0
ELLIPSE
  5
A2
330
1F
100
AcDbEntity
  8
0
  6
CONTINUOUS
 62
     3
100
AcDbEllipse
 10
38.37499990463258
 20
-8.213247398615239
 30
0.0
 11
0.3000000000000114
 21
0.0
 31
0.0
210
0.0
220
0.0
230
1.0
 40
0.6666666666666666
 41
4.712388980385356
 42
6.283185307179586
  0
LINE
  5
A3
330
1F
100
AcDbEntity
  8
0
  6
CONTINUOUS
 62
     3
100
AcDbLine
 10
37.87499990463258
 20
-4.304798835070043
 30
0.0
 11
38.67499990463258
 21
-4.304798835070043
 31
0.0
  0
LINE
  5
A4
330
1F
100
AcDbEntity
  8
0
  6
CONTINUOUS
 62
     3
100
AcDbLine
 10
18.17499990463255
 20
-9.299999999999995
 30
0.0
 11
18.17499990463255
 21
3.299999999999987
 31
0.0
  0
LINE
  5
A5
330
1F
100
AcDbEntity
  8
0
  6
CONTINUOUS
 62
     3
100
AcDbLine
 10
38.67499990463258
 20
-6.999999886751146
 30
0.0
 11
41.87500009536745
 21
-6.999999886751146
 31
0.0
  0
LINE
  5
A6
330
1F
100
AcDbEntity
  8
0
  6
CONTINUOUS
 62
     3
100
AcDbLine
 10
38.67499990463258
 20
-7.299999886751143
 30
0.0
 11
41.87500009536745
 21
-7.299999886751143
 31
0.0
  0
LINE
  5
A7
330
1F
100
AcDbEntity
  8
0
  6
CONTINUOUS
 62
     3
100
AcDbLine
 10
36.87499990463255
 20
3.400000000000002
 30
0.0
 11
36.87499990463257
 21
-9.399999999999993
 31
0.0
  0
LINE
  5
A8
330
1F
100
AcDbEntity
  8
0
  6
CONTINUOUS
 62
     3
100
AcDbLine
 10
37.87499990463258
 20
0.9999998867511426
 30
0.0
 11
37.87499990463258
 21
-8.549632764593225
 31
0.0
  0
LINE
  5
A9
330
1F
100
AcDbEntity
  8
0
  6
CONTINUOUS
 62
     3
100
AcDbLine
 10
38.67499990463258
 20
-8.213247398615239
 30
0.0
 11
38.67499990463258
 21
2.213247398615247
 31
0.0
  0
LINE
  5
AA
330
1F
100
AcDbEntity
  8
0
  6
CONTINUOUS
 62
     3
100
AcDbLine
 10
36.77499990463256
 20
3.500000000000004
 30
0.0
 11
18.37499990463255
 21
3.499999999999975
 31
0.0
  0
LINE
  5
AB
330
1F
100
AcDbEntity
  8
0
  6
CONTINUOUS
 62
     3
100
AcDbLine
 10
36.77499990463256
 20
3.500000000000004
 30
0.0
 11
36.87499990463255
 21
3.400000000000002
 31
0.0
  0
LINE
  5
AC
330
1F
100
AcDbEntity
  8
0
  6
CONTINUOUS
 62
     3
100
AcDbLine
 10
18.17499990463255
 20
3.299999999999979
 30
0.0
 11
18.37499990463254
 21
3.499999999999975
 31
0.0
  0
LINE
  5
AD
330
1F
100
AcDbEntity
  8
0
  6
CONTINUOUS
 62
     3
100
AcDbLine
 10
41.87500009536743
 20
1.299999886751154
 30
0.0
 11
41.87500009536745
 21
0.9999998867511568
 31
0.0
  0
LINE
  5
AE
330
1F
100
AcDbEntity
  8
0
  6
CONTINUOUS
 62
     3
100
AcDbLine
 10
37.87499990463258
 20
2.413247398615249
 30
0.0
 11
38.37499990463258
 21
2.413247398615249
 31
0.0
  0
ELLIPSE
  5
AF
330
1F
100
AcDbEntity
  8
0
  6
CONTINUOUS
 62
     3
100
AcDbEllipse
 10
38.37499990463258
 20
2.213247398615247
 30
0.0
 11
0.2999999999999972
 21
0.0
 31
0.0
210
0.0
220
0.0
230
1.0
 40
0.6666666666666666
 41
0.0000000000000019
 42
1.570796326794897
  0
LINE
  5
B0
330
1F
100
AcDbEntity
  8
0
  6
CONTINUOUS
 62
     3
100
AcDbLine
 10
37.87499990463258
 20
-1.695201164929953
 30
0.0
 11
38.67499990463258
 21
-1.695201164929953
 31
0.0
  0
LINE
  5
B1
330
1F
100
AcDbEntity
  8
0
  6
CONTINUOUS
 62
     3
100
AcDbLine
 10
38.67499990463258
 20
0.9999998867511568
 30
0.0
 11
41.87500009536745
 21
0.9999998867511568
 31
0.0
  0
LINE
  5
B2
330
1F
100
AcDbEntity
  8
0
  6
CONTINUOUS
 62
     3
100
AcDbLine
 10
38.67499990463258
 20
1.299999886751154
 30
0.0
 11
41.87500009536743
 21
1.299999886751154
 31
0.0
  0
LINE
  5
B3
330
1F
100
AcDbEntity
  8
0
  6
CONTINUOUS
 62
     3
100
AcDbLine
 10
36.87499990463255
 20
2.932367324215225
 30
0.0
 11
37.87499990463258
 21
2.756040343506758
 31
0.0
  0
CIRCLE
  5
B4
330
1F
100
AcDbEntity
  8
0
  6
CONTINUOUS
 62
     3
100
AcDbCircle
 10
78.37500009536745
 20
-3.000000000000012
 30
0.0
 40
6.5
  0
LINE
  5
B5
330
1F
100
AcDbEntity
  8
0
  6
CONTINUOUS
 62
     3
100
AcDbLine
 10
79.72500009536745
 20
1.913247398615349
 30
0.0
 11
79.72500009536745
 21
1.050000000000027
 31
0.0
  0
LINE
  5
B6
330
1F
100
AcDbEntity
  8
0
  6
CONTINUOUS
 62
     3
100
AcDbLine
 10
77.02500009536746
 20
1.91324739861537
 30
0.0
 11
77.02500009536746
 21
1.050000000000027
 31
0.0
  0
ARC
  5
B7
330
1F
100
AcDbEntity
  8
0
  6
CONTINUOUS
 62
     3
100
AcDbCircle
 10
77.52500009536746
 20
1.050000000000027
 30
0.0
 40
0.5
100
AcDbArc
 50
180.0
 51
270.0
  0
ARC
  5
B8
330
1F
100
AcDbEntity
  8
0
  6
CONTINUOUS
 62
     3
100
AcDbCircle
 10
79.22500009536745
 20
1.050000000000027
 30
0.0
 40
0.5
100
AcDbArc
 50
270.0
 51
360.0
  0
LINE
  5
B9
330
1F
100
AcDbEntity
  8
0
  6
CONTINUOUS
 62
     3
100
AcDbLine
 10
77.02500009536746
 20
-7.050000000000052
 30
0.0
 11
77.02500009536746
 21
-7.913247398615253
 31
0.0
  0
ARC
  5
BA
330
1F
100
AcDbEntity
  8
0
  6
CONTINUOUS
 62
     3
100
AcDbCircle
 10
77.52500009536746
 20
-7.050000000000052
 30
0.0
 40
0.5
100
AcDbArc
 50
90.0
 51
180.0
  0
LINE
  5
BB
330
1F
100
AcDbEntity
  8
0
  6
CONTINUOUS
 62
     3
100
AcDbLine
 10
79.22500009536745
 20
-6.550000000000052
 30
0.0
 11
77.52500009536746
 21
-6.550000000000052
 31
0.0
  0
ARC
  5
BC
330
1F
100
AcDbEntity
  8
0
  6
CONTINUOUS
 62
     3
100
AcDbCircle
 10
79.22500009536745
 20
-7.050000000000052
 30
0.0
 40
0.5
100
AcDbArc
 50
0.0
 51
90.00000000000001
  0
LINE
  5
BD
330
1F
100
AcDbEntity
  8
0
  6
CONTINUOUS
 62
     3
100
AcDbLine
 10
79.72500009536745
 20
-7.050000000000052
 30
0.0
 11
79.72500009536745
 21
-7.913247398615232
 31
0.0
  0
ARC
  5
BE
330
1F
100
AcDbEntity
  8
0
  6
CONTINUOUS
 62
     3
100
AcDbCircle
 10
76.52500009536746
 20
-7.913247398615253
 30
0.0
 40
0.5
100
AcDbArc
 50
249.3669858713359
 51
360.0
  0
ARC
  5
BF
330
1F
100
AcDbEntity
  8
0
  6
CONTINUOUS
 62
     3
100
AcDbCircle
 10
80.22500009536745
 20
-7.913247398615232
 30
0.0
 40
0.5
100
AcDbArc
 50
180.0
 51
290.6330141286648
  0
ARC
  5
C0
330
1F
100
AcDbEntity
  8
0
  6
CONTINUOUS
 62
     3
100
AcDbCircle
 10
76.52500009536746
 20
1.91324739861537
 30
0.0
 40
0.5
100
AcDbArc
 50
0.0
 51
110.6330141286641
  0
ARC
  5
C1
330
1F
100
AcDbEntity
  8
0
  6
CONTINUOUS
 62
     3
100
AcDbCircle
 10
80.22500009536745
 20
1.913247398615349
 30
0.0
 40
0.5
100
AcDbArc
 50
69.36698587133522
 51
180.0
  0
LINE
  5
C2
330
1F
100
AcDbEntity
  8
0
  6
CONTINUOUS
 62
     3
100
AcDbLine
 10
77.52500009536746
 20
0.5500000000000274
 30
0.0
 11
79.22500009536745
 21
0.5500000000000274
 31
0.0
  0
LINE
  5
C3
330
1F
100
AcDbEntity
  8
0
  6
CONTINUOUS
 62
     3
100
AcDbLine
 10
83.97500009536742
 20
-1.695201164929761
 30
0.0
 11
83.97500009536742
 21
-4.304798835069986
 31
0.0
  0
LINE
  5
C4
330
1F
100
AcDbEntity
  8
0
  6
CONTINUOUS
 62
     3
100
AcDbLine
 10
72.77500009536743
 20
-1.69520116493001
 30
0.0
 11
72.77500009536743
 21
-4.304798835069738
 31
0.0
  0
ARC
  5
C5
330
1F
100
AcDbEntity
  8
0
  6
CONTINUOUS
 62
     3
100
AcDbCircle
 10
78.37500009536743
 20
-2.999999999999941
 30
0.0
 40
5.75
100
AcDbArc
 50
193.1158971959657
 51
249.3669858713359
  0
ARC
  5
C6
330
1F
100
AcDbEntity
  8
0
  6
CONTINUOUS
 62
     3
100
AcDbCircle
 10
78.37500009536743
 20
-2.999999999999941
 30
0.0
 40
5.75
100
AcDbArc
 50
110.6330141286641
 51
166.8841028040324
  0
ARC
  5
C7
330
1F
100
AcDbEntity
  8
0
  6
CONTINUOUS
 62
     3
100
AcDbCircle
 10
78.37500009536743
 20
-2.999999999999941
 30
0.0
 40
5.75
100
AcDbArc
 50
290.6330141286648
 51
346.8841028040325
  0
ARC
  5
C8
330
1F
100
AcDbEntity
  8
0
  6
CONTINUOUS
 62
     3
100
AcDbCircle
 10
78.37500009536743
 20
-2.999999999999941
 30
0.0
 40
5.75
100
AcDbArc
 50
13.11589719596953
 51
69.36698587133522
  0
ELLIPSE
  5
C9
330
1F
100
AcDbEntity
  8
LAYER0001
  6
CONTINUOUS
 62
     3
100
AcDbEllipse
 10
16.47499990463255
 20
-6.250000000000034
 30
0.0
 11
1.35
 21
0.0
 31
0.0
210
0.0
220
0.0
230
1.0
 40
0.7741786567551693
 41
0.0
 42
6.283185307179586
  0
LINE
  5
CA
330
1F
100
AcDbEntity
  8
LAYER0001
  6
CONTINUOUS
 62
     3
100
AcDbLine
 10
15.72012114291015
 20
-6.834411025763286
 30
0.0
 11
16.47499990463255
 21
-6.250000000000034
 31
0.0
  0
LINE
  5
CB
330
1F
100
AcDbEntity
  8
LAYER0001
  6
CONTINUOUS
 62
     3
100
AcDbLine
 10
17.22987866635496
 20
-6.834411025763286
 30
0.0
 11
16.47499990463255
 21
-6.250000000000034
 31
0.0
  0
LINE
  5
CC
330
1F
100
AcDbEntity
  8
LAYER0001
  6
CONTINUOUS
 62
     3
100
AcDbLine
 10
15.72012114291015
 20
-5.665588974236782
 30
0.0
 11
16.47499990463255
 21
-6.250000000000034
 31
0.0
  0
LINE
  5
CD
330
1F
100
AcDbEntity
  8
LAYER0001
  6
CONTINUOUS
 62
     3
100
AcDbLine
 10
17.22987866635496
 20
-5.665588974236782
 30
0.0
 11
16.47499990463255
 21
-6.250000000000034
 31
0.0
  0
LINE
  5
CE
330
1F
100
AcDbEntity
  8
LAYER0064
  6
CONTINUOUS
 62
     3
100
AcDbLine
 10
37.87499990463258
 20
2.756040343506758
 30
0.0
 11
37.87499990463258
 21
-7.299999886751143
 31
0.0
  0
LINE
  5
CF
330
1F
100
AcDbEntity
  8
LAYER0064
  6
CONTINUOUS
 62
     3
100
AcDbLine
 10
79.27500009536746
 20
1.000000000000108
 30
0.0
 11
77.47500009536745
 21
1.000000000000094
 31
0.0
  0
LINE
  5
D0
330
1F
100
AcDbEntity
  8
LAYER0064
  6
CONTINUOUS
 62
     3
100
AcDbLine
 10
79.27500009536746
 20
1.500000000000108
 30
0.0
 11
77.47500009536745
 21
1.500000000000108
 31
0.0
  0
LINE
  5
D1
330
1F
100
AcDbEntity
  8
LAYER0064
  6
CONTINUOUS
 62
     3
100
AcDbLine
 10
79.27500009536746
 20
1.500000000000108
 30
0.0
 11
79.27500009536746
 21
1.000000000000101
 31
0.0
  0
LINE
  5
D2
330
1F
100
AcDbEntity
  8
LAYER0064
  6
CONTINUOUS
 62
     3
100
AcDbLine
 10
77.47500009536745
 20
1.500000000000108
 30
0.0
 11
77.47500009536745
 21
1.000000000000108
 31
0.0
  0
CIRCLE
  5
D3
330
1F
100
AcDbEntity
  8
LAYER0064
  6
CONTINUOUS
 62
     3
100
AcDbCircle
 10
78.37500009536743
 20
-2.999999999999863
 30
0.0
 40
5.95000000000001
  0
LINE
  5
D4
330
1F
100
AcDbEntity
  8
LAYER0064
  6
CONTINUOUS
 62
     3
100
AcDbLine
 10
77.47500009536736
 20
-6.99999999999987
 30
0.0
 11
79.27500009536738
 21
-6.999999999999863
 31
0.0
  0
LINE
  5
D5
330
1F
100
AcDbEntity
  8
LAYER0064
  6
CONTINUOUS
 62
     3
100
AcDbLine
 10
77.47500009536736
 20
-7.49999999999987
 30
0.0
 11
79.27500009536738
 21
-7.49999999999987
 31
0.0
  0
LINE
  5
D6
330
1F
100
AcDbEntity
  8
LAYER0064
  6
CONTINUOUS
 62
     3
100
AcDbLine
 10
77.47500009536736
 20
-7.49999999999987
 30
0.0
 11
77.47500009536736
 21
-6.999999999999867
 31
0.0
  0
LINE
  5
D7
330
1F
100
AcDbEntity
  8
LAYER0064
  6
CONTINUOUS
 62
     3
100
AcDbLine
 10
79.27500009536738
 20
-7.49999999999987
 30
0.0
 11
79.27500009536738
 21
-6.99999999999987
 31
0.0
  0
LINE
  5
D8
330
1F
100
AcDbEntity
  8
0
  6
CONTINUOUS
 62
     9
100
AcDbLine
 10
-77.12500009536743
 20
-0.4999999999999982
 30
0.0
 11
-77.12500009536743
 21
10.20000000000001
 31
0.0
  0
LINE
  5
D9
330
1F
100
AcDbEntity
  8
0
  6
CONTINUOUS
 62
     9
100
AcDbLine
 10
-67.62500009536743
 20
-0.4999999999999982
 30
0.0
 11
-67.62500009536743
 21
10.2
 31
0.0
  0
LINE
  5
DA
330
1F
100
AcDbEntity
  8
0
  6
CONTINUOUS
 62
     9
100
AcDbLine
 10
-77.12500009536743
 20
9.500000000000004
 30
0.0
 11
-67.62500009536743
 21
9.500000000000004
 31
0.0
  0
LINE
  5
DB
330
1F
100
AcDbEntity
  8
0
  6
CONTINUOUS
 62
     9
100
AcDbLine
 10
-16.87500009536742
 20
-4.499999999999998
 30
0.0
 11
-26.87500009536742
 21
-4.499999999999998
 31
0.0
  0
LINE
  5
DC
330
1F
100
AcDbEntity
  8
0
  6
CONTINUOUS
 62
     9
100
AcDbLine
 10
-16.87500009536742
 20
-1.999999999999998
 30
0.0
 11
-26.87500009536742
 21
-1.999999999999998
 31
0.0
  0
LINE
  5
DD
330
1F
100
AcDbEntity
  8
0
  6
CONTINUOUS
 62
     9
100
AcDbLine
 10
-25.87500009536742
 20
-4.499999999999998
 30
0.0
 11
-25.87500009536742
 21
-1.999999999999998
 31
0.0
  0
LINE
  5
DE
330
1F
100
AcDbEntity
  8
0
  6
CONTINUOUS
 62
     9
100
AcDbLine
 10
-16.87500009536742
 20
-4.499999999999998
 30
0.0
 11
-36.87500009536743
 21
-4.499999999999998
 31
0.0
  0
LINE
  5
DF
330
1F
100
AcDbEntity
  8
0
  6
CONTINUOUS
 62
     9
100
AcDbLine
 10
-9.508974691582985
 20
-1.499999999999998
 30
0.0
 11
-36.87500009536743
 21
-1.499999999999998
 31
0.0
  0
LINE
  5
E0
330
1F
100
AcDbEntity
  8
0
  6
CONTINUOUS
 62
     9
100
AcDbLine
 10
-35.87500009536743
 20
-4.499999999999998
 30
0.0
 11
-35.87500009536743
 21
-1.499999999999998
 31
0.0
  0
LINE
  5
E1
330
1F
100
AcDbEntity
  8
0
  6
CONTINUOUS
 62
     9
100
AcDbLine
 10
-6.675000095367416
 20
-5.999999999999998
 30
0.0
 11
-46.87500009536743
 21
-5.999999999999998
 31
0.0
  0
LINE
  5
E2
330
1F
100
AcDbEntity
  8
0
  6
CONTINUOUS
 62
     9
100
AcDbLine
 10
-6.675000095367416
 20
0.0000000000000018
 30
0.0
 11
-46.87500009536743
 21
0.0000000000000018
 31
0.0
  0
LINE
  5
E3
330
1F
100
AcDbEntity
  8
0
  6
CONTINUOUS
 62
     9
100
AcDbLine
 10
-45.87500009536743
 20
-5.999999999999998
 30
0.0
 11
-45.87500009536743
 21
0.0000000000000018
 31
0.0
  0
LINE
  5
E4
330
1F
100
AcDbEntity
  8
0
  6
CONTINUOUS
 62
     9
100
AcDbLine
 10
-5.675000095367416
 20
-9.499999999999998
 30
0.0
 11
-56.87500009536743
 21
-9.499999999999998
 31
0.0
  0
LINE
  5
E5
330
1F
100
AcDbEntity
  8
0
  6
CONTINUOUS
 62
     9
100
AcDbLine
 10
-5.675000095367416
 20
3.500000000000004
 30
0.0
 11
-56.87500009536743
 21
3.500000000000004
 31
0.0
  0
LINE
  5
E6
330
1F
100
AcDbEntity
  8
0
  6
CONTINUOUS
 62
     9
100
AcDbLine
 10
-55.87500009536743
 20
-9.499999999999998
 30
0.0
 11
-55.87500009536743
 21
3.500000000000004
 31
0.0
  0
LINE
  5
E7
330
1F
100
AcDbEntity
  8
0
  6
CONTINUOUS
 62
     9
100
AcDbLine
 10
-5.875000095367419
 20
0.7500000000000018
 30
0.0
 11
-5.875000095367419
 21
12.2
 31
0.0
  0
LINE
  5
E8
330
1F
100
AcDbEntity
  8
0
  6
CONTINUOUS
 62
     9
100
AcDbLine
 10
-5.875000095367419
 20
11.5
 30
0.0
 11
-4.875000095367419
 21
11.5
 31
0.0
  0
LINE
  5
E9
330
1F
100
AcDbEntity
  8
0
  6
CONTINUOUS
 62
     9
100
AcDbLine
 10
-15.87500009536742
 20
-0.9999999999999982
 30
0.0
 11
-15.87500009536742
 21
23.5
 31
0.0
  0
LINE
  5
EA
330
1F
100
AcDbEntity
  8
0
  6
CONTINUOUS
 62
     9
100
AcDbLine
 10
-9.375000095367419
 20
-0.9999999999999982
 30
0.0
 11
-9.375000095367419
 21
20.2
 31
0.0
  0
LINE
  5
EB
330
1F
100
AcDbEntity
  8
0
  6
CONTINUOUS
 62
     9
100
AcDbLine
 10
-15.87500009536742
 20
19.5
 30
0.0
 11
-9.375000095367419
 21
19.5
 31
0.0
  0
LINE
  5
EC
330
1F
100
AcDbEntity
  8
0
  6
CONTINUOUS
 62
     9
100
AcDbLine
 10
18.17499990463255
 20
4.299999999999979
 30
0.0
 11
18.17499990463255
 21
20.2
 31
0.0
  0
LINE
  5
ED
330
1F
100
AcDbEntity
  8
0
  6
CONTINUOUS
 62
     9
100
AcDbLine
 10
-4.875000095367419
 20
4.300000000000001
 30
0.0
 11
-4.875000095367419
 21
28.2
 31
0.0
  0
LINE
  5
EE
330
1F
100
AcDbEntity
  8
0
  6
CONTINUOUS
 62
     9
100
AcDbLine
 10
37.87499990463258
 20
3.756040343506758
 30
0.0
 11
37.87499990463258
 21
20.2
 31
0.0
  0
LINE
  5
EF
330
1F
100
AcDbEntity
  8
0
  6
CONTINUOUS
 62
     9
100
AcDbLine
 10
38.67499990463258
 20
3.213247398615247
 30
0.0
 11
38.67499990463258
 21
28.2
 31
0.0
  0
LINE
  5
F0
330
1F
100
AcDbEntity
  8
0
  6
CONTINUOUS
 62
     9
100
AcDbLine
 10
37.87499990463258
 20
19.5
 30
0.0
 11
38.67499990463258
 21
19.5
 31
0.0
  0
LINE
  5
F1
330
1F
100
AcDbEntity
  8
0
  6
CONTINUOUS
 62
     9
100
AcDbLine
 10
-15.87500009536742
 20
-0.9999999999999982
 30
0.0
 11
-15.87500009536742
 21
28.2
 31
0.0
  0
LINE
  5
F2
330
1F
100
AcDbEntity
  8
0
  6
CONTINUOUS
 62
     9
100
AcDbLine
 10
-4.875000095367419
 20
4.300000000000001
 30
0.0
 11
-4.875000095367419
 21
28.2
 31
0.0
  0
LINE
  5
F3
330
1F
100
AcDbEntity
  8
0
  6
CONTINUOUS
 62
     9
100
AcDbLine
 10
38.67499990463258
 20
3.213247398615247
 30
0.0
 11
38.67499990463258
 21
28.2
 31
0.0
  0
LINE
  5
F4
330
1F
100
AcDbEntity
  8
0
  6
CONTINUOUS
 62
     9
100
AcDbLine
 10
37.87499990463258
 20
-9.028001267001883
 30
0.0
 11
37.87499990463258
 21
-18.5
 31
0.0
  0
LINE
  5
F5
330
1F
100
AcDbEntity
  8
0
  6
CONTINUOUS
 62
     9
100
AcDbLine
 10
41.87500009536745
 20
-7.968503362244354
 30
0.0
 11
41.87500009536745
 21
-18.5
 31
0.0
  0
LINE
  5
F6
330
1F
100
AcDbEntity
  8
0
  6
CONTINUOUS
 62
     9
100
AcDbLine
 10
37.87499990463258
 20
-17.5
 30
0.0
 11
41.87500009536745
 21
-17.5
 31
0.0
  0
LINE
  5
F7
330
1F
100
AcDbEntity
  8
0
  6
CONTINUOUS
 62
     9
100
AcDbLine
 10
-4.875000095367419
 20
-10.3
 30
0.0
 11
-4.875000095367419
 21
-18.5
 31
0.0
  0
LINE
  5
F8
330
1F
100
AcDbEntity
  8
0
  6
CONTINUOUS
 62
     9
100
AcDbLine
 10
-7.375000095367419
 20
-6.749999999999998
 30
0.0
 11
-7.375000095367419
 21
-18.5
 31
0.0
  0
LINE
  5
F9
330
1F
100
AcDbEntity
  8
0
  6
CONTINUOUS
 62
     9
100
AcDbLine
 10
-7.375000095367419
 20
-17.5
 30
0.0
 11
-4.875000095367419
 21
-17.5
 31
0.0
  0
LINE
  5
FA
330
1F
100
AcDbEntity
  8
0
  6
CONTINUOUS
 62
     9
100
AcDbLine
 10
-78.87500009536743
 20
-25.5
 30
0.0
 11
-10.58725609063536
 21
-25.5
 31
0.0
  0
LINE
  5
FB
330
1F
100
AcDbEntity
  8
0
  6
CONTINUOUS
 62
     9
100
AcDbLine
 10
18.17499990463255
 20
-33.5
 30
0.0
 11
-28.58271901970774
 21
-33.5
 31
0.0
  0
LINE
  5
FC
330
1F
100
AcDbEntity
  8
0
  6
CONTINUOUS
 62
     9
100
AcDbLine
 10
48.89463688822764
 20
-17.5
 30
0.0
 11
71.87500009536745
 21
-17.5
 31
0.0
  0
LINE
  5
FD
330
1F
100
AcDbEntity
  8
0
  6
CONTINUOUS
 62
     9
100
AcDbLine
 10
18.17499990463255
 20
19.5
 30
0.0
 11
37.87499990463258
 21
19.5
 31
0.0
  0
INSERT
  5
FE
330
1F
100
AcDbEntity
  8
0
 62
     9
100
AcDbBlockReference
  2
_OPEN30
 10
18.17499990463255
 20
19.5
 30
0.0
 41
3.000002787824364
 42
2.999989273978464
 50
180.0
  0
INSERT
  5
FF
330
1F
100
AcDbEntity
  8
0
 62
     9
100
AcDbBlockReference
  2
_OPEN30
 10
37.87499990463258
 20
19.5
 30
0.0
 41
3.000002787824364
 42
2.999989273978464
 50
360.0
  0
LINE
  5
100
330
1F
100
AcDbEntity
  8
0
  6
CONTINUOUS
 62
     9
100
AcDbLine
 10
-15.87500009536742
 20
27.5
 30
0.0
 11
-4.875000095367419
 21
27.5
 31
0.0
  0
INSERT
  5
101
330
1F
100
AcDbEntity
  8
0
 62
     9
100
AcDbBlockReference
  2
_OPEN30
 10
-15.87500009536742
 20
27.5
 30
0.0
 41
3.000002787824364
 42
2.999989273978464
 50
180.0
  0
INSERT
  5
102
330
1F
100
AcDbEntity
  8
0
 62
     9
100
AcDbBlockReference
  2
_OPEN30
 10
-4.875000095367419
 20
27.5
 30
0.0
 41
3.000002787824364
 42
2.999989273978464
 50
360.0
  0
LINE
  5
103
330
1F
100
AcDbEntity
  8
0
  6
CONTINUOUS
 62
     9
100
AcDbLine
 10
-4.875000095367419
 20
27.5
 30
0.0
 11
38.67499990463258
 21
27.5
 31
0.0
  0
INSERT
  5
104
330
1F
100
AcDbEntity
  8
0
 62
     9
100
AcDbBlockReference
  2
_OPEN30
 10
-4.875000095367419
 20
27.5
 30
0.0
 41
3.000002787824364
 42
2.999989273978464
 50
180.0
  0
INSERT
  5
105
330
1F
100
AcDbEntity
  8
0
 62
     9
100
AcDbBlockReference
  2
_OPEN30
 10
38.67499990463258
 20
27.5
 30
0.0
 41
3.000002787824364
 42
2.999989273978464
 50
360.0
  0
LINE
  5
106
330
1F
100
AcDbEntity
  8
0
  6
CENTER
 62
     9
100
AcDbLine
 10
-64.87500009536743
 20
-2.999999999999998
 30
0.0
 11
-79.87500009536743
 21
-2.999999999999998
 31
0.0
  0
LINE
  5
107
330
1F
100
AcDbEntity
  8
0
  6
CENTER
 62
     9
100
AcDbLine
 10
-72.37500009536743
 20
4.500000000000002
 30
0.0
 11
-72.37500009536743
 21
-10.5
 31
0.0
  0
LINE
  5
108
330
1F
100
AcDbEntity
  8
0
  6
CENTER
 62
     9
100
AcDbLine
 10
85.87500009536745
 20
-2.999999999999863
 30
0.0
 11
70.8750000953674
 21
-2.999999999999863
 31
0.0
  0
LINE
  5
109
330
1F
100
AcDbEntity
  8
0
  6
CENTER
 62
     9
100
AcDbLine
 10
78.37500009536743
 20
4.500000000000165
 30
0.0
 11
78.37500009536743
 21
-10.49999999999989
 31
0.0
  0
LINE
  5
10A
330
1F
100
AcDbEntity
  8
0
  6
CONTINUOUS
 62
     9
100
AcDbLine
 10
-55.87500009536743
 20
-14.5
 30
0.0
 11
-55.87500009536743
 21
-9.499999999999998
 31
0.0
  0
INSERT
  5
10B
330
1F
100
AcDbEntity
  8
0
 62
     9
100
AcDbBlockReference
  2
_OPEN30
 10
-55.87500009536743
 20
-9.499999999999998
 30
0.0
 41
3.000002787824364
 42
2.999989273978464
 50
90.0
  0
LINE
  5
10C
330
1F
100
AcDbEntity
  8
0
  6
CONTINUOUS
 62
     9
100
AcDbLine
 10
-55.87500009536743
 20
8.500000000000004
 30
0.0
 11
-55.87500009536743
 21
3.500000000000004
 31
0.0
  0
INSERT
  5
10D
330
1F
100
AcDbEntity
  8
0
 62
     9
100
AcDbBlockReference
  2
_OPEN30
 10
-55.87500009536743
 20
3.500000000000004
 30
0.0
 41
3.000002787824364
 42
2.999989273978464
 50
270.0
  0
LINE
  5
10E
330
1F
100
AcDbEntity
  8
0
  6
CONTINUOUS
 62
     9
100
AcDbLine
 10
-45.87500009536743
 20
25.38
 30
0.0
 11
-45.87500009536743
 21
0.0000000000000018
 31
0.0
  0
INSERT
  5
10F
330
1F
100
AcDbEntity
  8
0
 62
     9
100
AcDbBlockReference
  2
_OPEN30
 10
-45.87500009536743
 20
0.0000000000000018
 30
0.0
 41
3.000002787824364
 42
2.999989273978464
 50
270.0
  0
LINE
  5
110
330
1F
100
AcDbEntity
  8
0
  6
CONTINUOUS
 62
     9
100
AcDbLine
 10
-45.87500009536743
 20
-11.0
 30
0.0
 11
-45.87500009536743
 21
-5.999999999999998
 31
0.0
  0
INSERT
  5
111
330
1F
100
AcDbEntity
  8
0
 62
     9
100
AcDbBlockReference
  2
_OPEN30
 10
-45.87500009536743
 20
-5.999999999999998
 30
0.0
 41
3.000002787824364
 42
2.999989273978464
 50
90.0
  0
LINE
  5
112
330
1F
100
AcDbEntity
  8
0
  6
CONTINUOUS
 62
     9
100
AcDbLine
 10
-35.87500009536743
 20
25.38
 30
0.0
 11
-35.87500009536743
 21
-1.499999999999998
 31
0.0
  0
INSERT
  5
113
330
1F
100
AcDbEntity
  8
0
 62
     9
100
AcDbBlockReference
  2
_OPEN30
 10
-35.87500009536743
 20
-1.499999999999998
 30
0.0
 41
3.000002787824364
 42
2.999989273978464
 50
270.0
  0
LINE
  5
114
330
1F
100
AcDbEntity
  8
0
  6
CONTINUOUS
 62
     9
100
AcDbLine
 10
-35.87500009536743
 20
-9.499999999999998
 30
0.0
 11
-35.87500009536743
 21
-4.499999999999998
 31
0.0
  0
INSERT
  5
115
330
1F
100
AcDbEntity
  8
0
 62
     9
100
AcDbBlockReference
  2
_OPEN30
 10
-35.87500009536743
 20
-4.499999999999998
 30
0.0
 41
3.000002787824364
 42
2.999989273978464
 50
90.0
  0
LINE
  5
116
330
1F
100
AcDbEntity
  8
0
  6
CONTINUOUS
 62
     9
100
AcDbLine
 10
-25.87500009536742
 20
26.50000000000001
 30
0.0
 11
-25.87500009536742
 21
-1.999999999999998
 31
0.0
  0
INSERT
  5
117
330
1F
100
AcDbEntity
  8
0
 62
     9
100
AcDbBlockReference
  2
_OPEN30
 10
-25.87500009536742
 20
-1.999999999999998
 30
0.0
 41
3.000002787824364
 42
2.999989273978464
 50
270.0
  0
LINE
  5
118
330
1F
100
AcDbEntity
  8
0
  6
CONTINUOUS
 62
     9
100
AcDbLine
 10
-25.87500009536742
 20
-9.499999999999998
 30
0.0
 11
-25.87500009536742
 21
-4.499999999999998
 31
0.0
  0
INSERT
  5
119
330
1F
100
AcDbEntity
  8
0
 62
     9
100
AcDbBlockReference
  2
_OPEN30
 10
-25.87500009536742
 20
-4.499999999999998
 30
0.0
 41
3.000002787824364
 42
2.999989273978464
 50
90.0
  0
LINE
  5
11A
330
1F
100
AcDbEntity
  8
0
  6
CONTINUOUS
 62
     9
100
AcDbLine
 10
53.17277990463258
 20
19.5
 30
0.0
 11
38.67499990463258
 21
19.5
 31
0.0
  0
INSERT
  5
11B
330
1F
100
AcDbEntity
  8
0
 62
     9
100
AcDbBlockReference
  2
_OPEN30
 10
38.67499990463258
 20
19.5
 30
0.0
 41
3.000002787824364
 42
2.999989273978464
 50
180.0
  0
LINE
  5
11C
330
1F
100
AcDbEntity
  8
0
  6
CONTINUOUS
 62
     9
100
AcDbLine
 10
3.222779904632581
 20
11.5
 30
0.0
 11
-4.875000095367419
 21
11.5
 31
0.0
  0
INSERT
  5
11D
330
1F
100
AcDbEntity
  8
0
 62
     9
100
AcDbBlockReference
  2
_OPEN30
 10
-4.875000095367419
 20
11.5
 30
0.0
 41
3.000002787824364
 42
2.999989273978464
 50
180.0
  0
LINE
  5
11E
330
1F
100
AcDbEntity
  8
0
  6
CONTINUOUS
 62
     9
100
AcDbLine
 10
-10.87500009536742
 20
11.5
 30
0.0
 11
-5.875000095367419
 21
11.5
 31
0.0
  0
INSERT
  5
11F
330
1F
100
AcDbEntity
  8
0
 62
     9
100
AcDbBlockReference
  2
_OPEN30
 10
-5.875000095367419
 20
11.5
 30
0.0
 41
3.000002787824364
 42
2.999989273978464
 50
360.0
  0
LINE
  5
120
330
1F
100
AcDbEntity
  8
0
  6
CONTINUOUS
 62
     9
100
AcDbLine
 10
16.02277990463258
 20
-17.5
 30
0.0
 11
-4.875000095367419
 21
-17.5
 31
0.0
  0
INSERT
  5
121
330
1F
100
AcDbEntity
  8
0
 62
     9
100
AcDbBlockReference
  2
_OPEN30
 10
-4.875000095367419
 20
-17.5
 30
0.0
 41
3.000002787824364
 42
2.999989273978464
 50
180.0
  0
LINE
  5
122
330
1F
100
AcDbEntity
  8
0
  6
CONTINUOUS
 62
     9
100
AcDbLine
 10
-12.37500009536742
 20
-17.5
 30
0.0
 11
-7.375000095367419
 21
-17.5
 31
0.0
  0
INSERT
  5
123
330
1F
100
AcDbEntity
  8
0
 62
     9
100
AcDbBlockReference
  2
_OPEN30
 10
-7.375000095367419
 20
-17.5
 30
0.0
 41
3.000002787824364
 42
2.999989273978464
 50
360.0
  0
LINE
  5
124
330
1F
100
AcDbEntity
  8
0
  6
CONTINUOUS
 62
     9
100
AcDbLine
 10
46.87500009536745
 20
-17.5
 30
0.0
 11
41.87500009536745
 21
-17.5
 31
0.0
  0
INSERT
  5
125
330
1F
100
AcDbEntity
  8
0
 62
     9
100
AcDbBlockReference
  2
_OPEN30
 10
41.87500009536745
 20
-17.5
 30
0.0
 41
3.000002787824364
 42
2.999989273978464
 50
180.0
  0
LINE
  5
126
330
1F
100
AcDbEntity
  8
0
  6
CONTINUOUS
 62
     9
100
AcDbLine
 10
32.87499990463258
 20
-17.5
 30
0.0
 11
37.87499990463258
 21
-17.5
 31
0.0
  0
INSERT
  5
127
330
1F
100
AcDbEntity
  8
0
 62
     9
100
AcDbBlockReference
  2
_OPEN30
 10
37.87499990463258
 20
-17.5
 30
0.0
 41
3.000002787824364
 42
2.999989273978464
 50
360.0
  0
LINE
  5
128
330
1F
100
AcDbEntity
  8
0
  6
CONTINUOUS
 62
     9
100
AcDbLine
 10
-4.375000095367422
 20
19.5
 30
0.0
 11
-9.375000095367422
 21
19.5
 31
0.0
  0
INSERT
  5
129
330
1F
100
AcDbEntity
  8
0
 62
     9
100
AcDbBlockReference
  2
_OPEN30
 10
-9.375000095367422
 20
19.5
 30
0.0
 41
3.000002787824364
 42
2.999989273978464
 50
180.0
  0
LINE
  5
12A
330
1F
100
AcDbEntity
  8
0
  6
CONTINUOUS
 62
     9
100
AcDbLine
 10
-20.87500009536742
 20
19.5
 30
0.0
 11
-15.87500009536742
 21
19.5
 31
0.0
  0
INSERT
  5
12B
330
1F
100
AcDbEntity
  8
0
 62
     9
100
AcDbBlockReference
  2
_OPEN30
 10
-15.87500009536742
 20
19.5
 30
0.0
 41
3.000002787824364
 42
2.999989273978464
 50
360.0
  0
LINE
  5
12C
330
1F
100
AcDbEntity
  8
0
  6
CONTINUOUS
 62
     9
100
AcDbLine
 10
-82.12500009536743
 20
9.500000000000004
 30
0.0
 11
-77.12500009536743
 21
9.500000000000004
 31
0.0
  0
INSERT
  5
12D
330
1F
100
AcDbEntity
  8
0
 62
     9
100
AcDbBlockReference
  2
_OPEN30
 10
-77.12500009536743
 20
9.500000000000004
 30
0.0
 41
3.000002787824364
 42
2.999989273978464
 50
360.0
  0
LINE
  5
12E
330
1F
100
AcDbEntity
  8
0
  6
CONTINUOUS
 62
     9
100
AcDbLine
 10
-62.62500009536743
 20
9.500000000000002
 30
0.0
 11
-67.62500009536743
 21
9.500000000000004
 31
0.0
  0
INSERT
  5
12F
330
1F
100
AcDbEntity
  8
0
 62
     9
100
AcDbBlockReference
  2
_OPEN30
 10
-67.62500009536743
 20
9.500000000000004
 30
0.0
 41
3.000002787824364
 42
2.999989273978464
 50
180.0
  0
TEXT
  5
130
330
1F
100
AcDbEntity
  8
0
 62
     7
100
AcDbText
 10
-81.83500009536742
 20
10.5
 30
0.0
 40
4.0
  1
9.5
 41
0.7999999999999995
  7
FDASTYLE0
 72
     5
 11
-72.23500009536743
 21
10.5
 31
0.0
100
AcDbText
  0
TEXT
  5
131
330
1F
100
AcDbEntity
  8
0
 62
     7
100
AcDbText
 10
-71.23500009536743
 20
13.10000000000001
 30
0.0
 40
2.6
  1
±0.2
 41
0.7619047619047619
  7
FDASTYLE0
 72
     5
 11
-62.91500009536743
 21
13.10000000000001
 31
0.0
100
AcDbText
  0
TEXT
  5
132
330
1F
100
AcDbEntity
  8
0
 62
     7
100
AcDbText
 10
-26.87500009536742
 20
4.500000000000004
 30
0.0
 40
4.0
  1
2.5
 50
90.0
 41
0.8000000000000002
  7
FDASTYLE0
 72
     5
 11
-26.87500009536742
 21
14.10000000000001
 31
0.0
100
AcDbText
  0
TEXT
  5
133
330
1F
100
AcDbEntity
  8
0
 62
     7
100
AcDbText
 10
-29.47500009536742
 20
15.10000000000001
 30
0.0
 40
2.6
  1
±0.15
 50
90.0
 41
0.7692307692307694
  7
FDASTYLE0
 72
     5
 11
-29.47500009536742
 21
25.50000000000001
 31
0.0
100
AcDbText
  0
TEXT
  5
134
330
1F
100
AcDbEntity
  8
0
 62
     7
100
AcDbText
 10
-36.87500009536743
 20
4.500000000000004
 30
0.0
 40
4.0
  1
φ3
 50
90.0
 41
0.7272727272727271
  7
FDASTYLE0
 72
     5
 11
-36.87500009536743
 21
10.9
 31
0.0
100
AcDbText
  0
TEXT
  5
135
330
1F
100
AcDbEntity
  8
0
 62
     7
100
AcDbText
 10
-39.47500009536742
 20
11.9
 30
0.0
 40
2.6
  1
+0.005
 50
90.0
 41
0.7999999999999999
  7
FDASTYLE0
 72
     5
 11
-39.47500009536742
 21
24.38
 31
0.0
100
AcDbText
  0
TEXT
  5
136
330
1F
100
AcDbEntity
  8
0
 62
     7
100
AcDbText
 10
-36.67500009536742
 20
11.9
 30
0.0
 40
2.6
  1
-0.015
 50
90.0
 41
0.7999999999999999
  7
FDASTYLE0
 72
     5
 11
-36.67500009536742
 21
24.38
 31
0.0
100
AcDbText
  0
TEXT
  5
137
330
1F
100
AcDbEntity
  8
0
 62
     7
100
AcDbText
 10
-46.87500009536743
 20
4.500000000000004
 30
0.0
 40
4.0
  1
φ6
 50
90.0
 41
0.7272727272727271
  7
FDASTYLE0
 72
     5
 11
-46.87500009536743
 21
10.9
 31
0.0
100
AcDbText
  0
TEXT
  5
138
330
1F
100
AcDbEntity
  8
0
 62
     7
100
AcDbText
 10
-49.47500009536742
 20
11.9
 30
0.0
 40
2.6
  1
+0.005
 50
90.0
 41
0.8000000000000002
  7
FDASTYLE0
 72
     5
 11
-49.47500009536742
 21
24.38000000000001
 31
0.0
100
AcDbText
  0
TEXT
  5
139
330
1F
100
AcDbEntity
  8
0
 62
     7
100
AcDbText
 10
-46.67500009536742
 20
11.9
 30
0.0
 40
2.6
  1
-0.030
 50
90.0
 41
0.8000000000000002
  7
FDASTYLE0
 72
     5
 11
-46.67500009536742
 21
24.38000000000001
 31
0.0
100
AcDbText
  0
TEXT
  5
13A
330
1F
100
AcDbEntity
  8
0
 62
     7
100
AcDbText
 10
-56.87500009536743
 20
-12.45999999999999
 30
0.0
 40
4.0
  1
φ13
 50
90.0
 41
0.7499999999999996
  7
FDASTYLE0
 72
     5
 11
-56.87500009536743
 21
-2.859999999999999
 31
0.0
100
AcDbText
  0
TEXT
  5
13B
330
1F
100
AcDbEntity
  8
0
 62
     7
100
AcDbText
 10
-59.47500009536742
 20
-1.859999999999999
 30
0.0
 40
2.6
  1
±0.2
 50
90.0
 41
0.7619047619047619
  7
FDASTYLE0
 72
     5
 11
-59.47500009536742
 21
6.460000000000001
 31
0.0
100
AcDbText
  0
TEXT
  5
13C
330
1F
100
AcDbEntity
  8
0
 62
     7
100
AcDbText
 10
-0.9772200953674179
 20
12.5
 30
0.0
 40
4.0
  1
1
 41
0.8
  7
FDASTYLE0
 72
     5
 11
2.222779904632582
 21
12.5
 31
0.0
100
AcDbText
  0
TEXT
  5
13D
330
1F
100
AcDbEntity
  8
0
 62
     7
100
AcDbText
 10
-15.72437811716617
 20
20.5
 30
0.0
 40
4.0
  1
6.5
 41
0.8000000000000002
  7
FDASTYLE0
 72
     5
 11
-6.124378117166167
 21
20.5
 31
0.0
100
AcDbText
  0
TEXT
  5
13E
330
1F
100
AcDbEntity
  8
0
 62
     7
100
AcDbText
 10
21.62499990463257
 20
20.5
 30
0.0
 40
4.0
  1
19.7
 41
0.7999999999999998
  7
FDASTYLE0
 72
     5
 11
34.42499990463256
 21
20.5
 31
0.0
100
AcDbText
  0
TEXT
  5
13F
330
1F
100
AcDbEntity
  8
0
 62
     7
100
AcDbText
 10
42.57277990463258
 20
20.5
 30
0.0
 40
4.0
  1
0.8
 41
0.8000000000000002
  7
FDASTYLE0
 72
     5
 11
52.17277990463258
 21
20.5
 31
0.0
100
AcDbText
  0
TEXT
  5
140
330
1F
100
AcDbEntity
  8
0
 62
     7
100
AcDbText
 10
-13.57500009536742
 20
28.5
 30
0.0
 40
4.0
  1
11
 41
0.7999999999999999
  7
FDASTYLE0
 72
     5
 11
-7.175000095367422
 21
28.5
 31
0.0
100
AcDbText
  0
TEXT
  5
141
330
1F
100
AcDbEntity
  8
0
 62
     7
100
AcDbText
 10
8.89999990463258
 20
28.5
 30
0.0
 40
4.0
  1
43.55
 41
0.8
  7
FDASTYLE0
 72
     5
 11
24.89999990463258
 21
28.5
 31
0.0
100
AcDbText
  0
TEXT
  5
142
330
1F
100
AcDbEntity
  8
0
 62
     7
100
AcDbText
 10
38.27500000000001
 20
-16.5
 30
0.0
 40
4.0
  1
4
 41
0.8000000000000007
  7
FDASTYLE0
 72
     5
 11
41.47500000000002
 21
-16.5
 31
0.0
100
AcDbText
  0
TEXT
  5
143
330
1F
100
AcDbEntity
  8
0
 62
     7
100
AcDbText
 10
-0.9772200953674179
 20
-16.5
 30
0.0
 40
4.0
  1
(2.5)
 41
0.8
  7
FDASTYLE0
 72
     5
 11
15.02277990463258
 21
-16.5
 31
0.0
100
AcDbText
  0
TEXT
  5
144
330
1F
100
AcDbEntity
  8
0
 62
     7
100
AcDbText
 10
-80.43059080518646
 20
-24.60116591622163
 30
0.0
 40
4.0
  1
　2-M2(P=0.4)ＤＥＰＴＨ　3MAX
 41
0.7521367521367522
  7
FDASTYLE0
 72
     5
 11
-10.03059080518645
 21
-24.60116591622163
 31
0.0
100
AcDbText
  0
TEXT
  5
145
330
1F
100
AcDbEntity
  8
0
 62
     7
100
AcDbText
 10
-27.62500009536745
 20
-32.75
 30
0.0
 40
4.0
  1
NAMEPLATE　LOT№
 41
0.7777777777777778
  7
FDASTYLE0
 72
     5
 11
17.17499990463255
 21
-32.75
 31
0.0
100
AcDbText
  0
TEXT
  5
146
330
1F
100
AcDbEntity
  8
0
 62
     7
100
AcDbText
 10
48.44234818903561
 20
-16.43338177682538
 30
0.0
 40
4.0
  1
（＋）ＭＡＲＫ
 41
0.6666666666666666
  7
FDASTYLE0
 72
     5
 11
70.8423481890356
 21
-16.43338177682538
 31
0.0
100
AcDbText
  0
INSERT
  5
147
330
1F
100
AcDbEntity
  8
0
  6
CONTINUOUS
100
AcDbBlockReference
  2
DA_IMAGEDIMGROUP_1
 10
0.0
 20
0.0
 30
0.0
  0
INSERT
  5
148
330
1F
100
AcDbEntity
  8
0
  6
CONTINUOUS
100
AcDbBlockReference
  2
DA_IMAGEDIMGROUP_2
 10
0.0
 20
0.0
 30
0.0
  0
VIEWPORT
  5
48
330
1B
100
AcDbEntity
 67
     1
  8
0
100
AcDbViewport
 10
1.875000000000014
 20
-0.5
 30
0.0
 40
504.0000005722046
 41
198.0
 68
     1
 69
     1
1001
ACAD
1000
MVIEW
1002
{
1070
    16
1010
0.0
1020
0.0
1030
0.0
1010
0.0
1020
0.0
1030
1.0
1040
0.0
1040
198.0
1040
1.875000000000014
1040
-0.5
1040
50.0
1040
0.0
1040
0.0
1070
     0
1070
   100
1070
     0
1070
     1
1070
     0
1070
     0
1070
     0
1070
     0
1040
0.0
1040
0.0
1040
0.0
1040
0.5
1040
0.5
1040
0.0
1040
0.0
1070
     0
1002
{
1002
}
1002
}
  0
ENDSEC
  0
SECTION
  2
OBJECTS
  0
DICTIONARY
  5
C
330
0
100
AcDbDictionary
  3
ACAD_GROUP
350
D
  3
ACAD_LAYOUT
350
1A
  3
ACAD_MLINESTYLE
350
17
  3
ACAD_PLOTSETTINGS
350
19
  3
ACDBHEADERROUNDTRIPXREC
350
149
  0
DICTIONARY
  5
D
102
{ACAD_REACTORS
330
C
102
}
330
C
100
AcDbDictionary
  0
DICTIONARY
  5
1A
102
{ACAD_REACTORS
330
C
102
}
330
C
100
AcDbDictionary
  0
DICTIONARY
  5
17
102
{ACAD_REACTORS
330
C
102
}
330
C
100
AcDbDictionary
  3
STANDARD
350
18
  0
DICTIONARY
  5
19
102
{ACAD_REACTORS
330
C
102
}
330
C
100
AcDbDictionary
  0
DICTIONARY
  5
149
102
{ACAD_REACTORS
330
C
102
}
330
C
100
AcDbDictionary
  3
CEPSNTYPE
350
152
  3
DIMSTYLEDATA
350
168
  3
FINGERPRINTGUID
350
153
  3
HYPERLINKBASE
350
14C
  3
INSUNITS
350
151
  3
LAYOUTDICT
350
14E
  3
LWETCUNION
350
150
  3
PLOTSETDICT
350
14F
  3
PSVPSCALE
350
155
  3
PUCSBASE
350
158
  3
PUCSORGBACK
350
15E
  3
PUCSORGBOTTOM
350
15A
  3
PUCSORGFRONT
350
15D
  3
PUCSORGLEFT
350
15B
  3
PUCSORGRIGHT
350
15C
  3
PUCSORGTOP
350
159
  3
PUCSORTHOREF
350
156
  3
PUCSORTHOVIEW
350
157
  3
STYLESHEET
350
14D
  3
TSTACKALIGN
350
14A
  3
TSTACKSIZE
350
14B
  3
UCSBASE
350
161
  3
UCSORGBACK
350
167
  3
UCSORGBOTTOM
350
163
  3
UCSORGFRONT
350
166
  3
UCSORGLEFT
350
164
  3
UCSORGRIGHT
350
165
  3
UCSORGTOP
350
162
  3
UCSORTHOREF
350
15F
  3
UCSORTHOVIEW
350
160
  3
VERSIONGUID
350
154
  0
MLINESTYLE
  5
18
102
{ACAD_REACTORS
330
17
102
}
330
17
100
AcDbMlineStyle
  2
Standard
 70
     0
  3

 62
   256
 51
90.0
 52
90.0
 71
     2
 49
0.5
 62
   256
  6
BYLAYER
 49
-0.5
 62
   256
  6
BYLAYER
  0
XRECORD
  5
152
102
{ACAD_REACTORS
330
149
102
}
330
149
100
AcDbXrecord
 90
        0
  0
XRECORD
  5
168
102
{ACAD_REACTORS
330
149
102
}
330
149
100
AcDbXrecord
1000
DSTYLE
1002
{
1070
   171
 70
     2
1070
   143
 40
25.4
1070
   274
 70
     2
1070
   141
 40
0.09
1070
   271
 70
     4
1070
    43
 40
0.38
1070
    44
 40
0.18
1070
   278
 70
    46
1070
    42
 40
0.0625
1070
   147
 40
0.09
1070
    77
 70
     3
1070
   272
 70
     4
1070
    73
 70
     1
1070
   172
 70
     0
1070
    74
 70
     1
1070
   283
 70
     1
1070
   340
340
11
1070
   140
 40
0.18
1070
   284
 70
     0
1070
    78
 70
     0
1002
}
  0
XRECORD
  5
153
102
{ACAD_REACTORS
330
149
102
}
330
149
100
AcDbXrecord
  1
{7DB28C10-ADC9-4E7D-B5AD-8C9246145EDD}
  0
XRECORD
  5
14C
102
{ACAD_REACTORS
330
149
102
}
330
149
100
AcDbXrecord
  1

  0
XRECORD
  5
151
102
{ACAD_REACTORS
330
149
102
}
330
149
100
AcDbXrecord
 90
        4
  0
XRECORD
  5
14E
102
{ACAD_REACTORS
330
149
102
}
330
149
100
AcDbXrecord
340
1A
  0
XRECORD
  5
150
102
{ACAD_REACTORS
330
149
102
}
330
149
100
AcDbXrecord
 90
    10781
  0
XRECORD
  5
14F
102
{ACAD_REACTORS
330
149
102
}
330
149
100
AcDbXrecord
340
19
  0
XRECORD
  5
155
102
{ACAD_REACTORS
330
149
102
}
330
149
100
AcDbXrecord
 40
0.0
  0
XRECORD
  5
158
102
{ACAD_REACTORS
330
149
102
}
330
149
100
AcDbXrecord
340
0
  0
XRECORD
  5
15E
102
{ACAD_REACTORS
330
149
102
}
330
149
100
AcDbXrecord
 10
0.0
 20
0.0
 30
0.0
  0
XRECORD
  5
15A
102
{ACAD_REACTORS
330
149
102
}
330
149
100
AcDbXrecord
 10
0.0
 20
0.0
 30
0.0
  0
XRECORD
  5
15D
102
{ACAD_REACTORS
330
149
102
}
330
149
100
AcDbXrecord
 10
0.0
 20
0.0
 30
0.0
  0
XRECORD
  5
15B
102
{ACAD_REACTORS
330
149
102
}
330
149
100
AcDbXrecord
 10
0.0
 20
0.0
 30
0.0
  0
XRECORD
  5
15C
102
{ACAD_REACTORS
330
149
102
}
330
149
100
AcDbXrecord
 10
0.0
 20
0.0
 30
0.0
  0
XRECORD
  5
159
102
{ACAD_REACTORS
330
149
102
}
330
149
100
AcDbXrecord
 10
0.0
 20
0.0
 30
0.0
  0
XRECORD
  5
156
102
{ACAD_REACTORS
330
149
102
}
330
149
100
AcDbXrecord
340
0
  0
XRECORD
  5
157
102
{ACAD_REACTORS
330
149
102
}
330
149
100
AcDbXrecord
 70
     0
  0
XRECORD
  5
14D
102
{ACAD_REACTORS
330
149
102
}
330
149
100
AcDbXrecord
  1

  0
XRECORD
  5
14A
102
{ACAD_REACTORS
330
149
102
}
330
149
100
AcDbXrecord
 90
        1
  0
XRECORD
  5
14B
102
{ACAD_REACTORS
330
149
102
}
330
149
100
AcDbXrecord
 90
       70
  0
XRECORD
  5
161
102
{ACAD_REACTORS
330
149
102
}
330
149
100
AcDbXrecord
340
0
  0
XRECORD
  5
167
102
{ACAD_REACTORS
330
149
102
}
330
149
100
AcDbXrecord
 10
0.0
 20
0.0
 30
0.0
  0
XRECORD
  5
163
102
{ACAD_REACTORS
330
149
102
}
330
149
100
AcDbXrecord
 10
0.0
 20
0.0
 30
0.0
  0
XRECORD
  5
166
102
{ACAD_REACTORS
330
149
102
}
330
149
100
AcDbXrecord
 10
0.0
 20
0.0
 30
0.0
  0
XRECORD
  5
164
102
{ACAD_REACTORS
330
149
102
}
330
149
100
AcDbXrecord
 10
0.0
 20
0.0
 30
0.0
  0
XRECORD
  5
165
102
{ACAD_REACTORS
330
149
102
}
330
149
100
AcDbXrecord
 10
0.0
 20
0.0
 30
0.0
  0
XRECORD
  5
162
102
{ACAD_REACTORS
330
149
102
}
330
149
100
AcDbXrecord
 10
0.0
 20
0.0
 30
0.0
  0
XRECORD
  5
15F
102
{ACAD_REACTORS
330
149
102
}
330
149
100
AcDbXrecord
340
0
  0
XRECORD
  5
160
102
{ACAD_REACTORS
330
149
102
}
330
149
100
AcDbXrecord
 70
     0
  0
XRECORD
  5
154
102
{ACAD_REACTORS
330
149
102
}
330
149
100
AcDbXrecord
  1
{FAEB1C32-E019-11D5-929B-00C0DF256EC4}
  0
ENDSEC
  0
EOF
